Oops, an error
Loading. Please wait.

No Sssweat Bass Tab

version 1
version 1

Whole song

Interactive

4,289 views 6 this week
2 commentsread comments
1 2 3 4 5
accurate
x 8
add to favorites
launch autoscroll
font size
0
reset
guitar tuner
Tab Pro tools
  • play this tab
  • loop segment
  • change instrument
  • show fretboard
  • metronome
×
Best way to learn
"No Sssweat"
Autoscroll
slow
fast
+/-
esc
set tempo
stop
Difficulty
novice
   Verse
F#|------------------------------------------|
C#|------------------------------------------|
G#|-5-5-5-5-1-1-1-1-4-4-4-4-4-4-4-4----------|   x8
C#|------------------------------------------|

   Pre-Chorus
F#|------------------------------------------|
C#|------------------------------------------|
G#|---5~--------------------5~---------------|
C#|------------------------------------------|

   Chorus
F#|-----------------------------------------------------------------|
C#|-----------------------------------------------------------------|
G#|-5-5-5-5-------------------------5-5-5-5-------------------------|   x2
C#|---------7-7-7-7-8-8-8-8-8-7-5-3---------7-7-7-7-8-8-8-8-8-8-8-8-|


   "You do this every fucking time" bit
F#|------------------------------------------|
C#|------------------------------------------|
G#|------------------------------------------|   x4
C#|-0-0-------------0-0-0------0-3-0-5~------|


   Chorus (Only play through once this time)
F#|-----------------------------------------------------------------|
C#|-----------------------------------------------------------------|
G#|-5-5-5-5-------------------------5-5-5-5-------------------------|
C#|---------7-7-7-7-8-8-8-8-8-7-5-3---------7-7-7-7-8-8-8-8-8-8-8-8-|


   Bridge
F#|-----------------------------------------------------------------|
C#|-----------------------------------------------------------------|
G#|-----------------------------------------------------------------|   x3
C#|-8-8-8-8-8-8-8-8-8-8-8-8-8-8-8-8-0-0-0-0-0-0-0-0-7-7-7-7-7-7-7-7-|


   Verse
F#|------------------------------------------|
C#|------------------------------------------|
G#|-5-5-5-5-1-1-1-1-4-4-4-4-4-4-4-4----------|   x8
C#|------------------------------------------|


  Chorus
F#|-----------------------------------------------------------------|
C#|-----------------------------------------------------------------|
G#|-5-5-5-5-------------------------5-5-5-5-------------------------|   x2
C#|---------7-7-7-7-8-8-8-8-8-7-5-3---------7-7-7-7-8-8-8-8-8-8-8-8-|


   "You do this every fucking time" bit
F#|------------------------------------------|
C#|------------------------------------------|
G#|------------------------------------------|   x3
C#|-0-0-------------0-0-0------0-3-0-5~------|

   "Do this one more time..."
F#|------------------------------------------|
C#|------------------------------------------|
G#|------------------------------------------|
C#|-0-0------------------------------0-0-0-0-|
comments
print report bad tab
2 comments total.
0 reply
Coathe wrote on August 26 2007, 06:26 am

"Do this one mroe time and i'll bite your ****ing fingers off!" lol

0 reply
robotfrom94 wrote on July 21 2013, 11:50 am

Great tab, but I personally play the verse double the speed that you've done
so instead of



Verse
F#|------------------------------------------|
C#|------------------------------------------|
G#|-5-5-5-5-1-1-1-1-4-4-4-4-4-4-4-4----------| x8
C#|------------------------------------------|



I do



Verse
F#|------------------------------------------|
C#|------------------------------------------|
G#|-55555555111111114444444444444444----------| x8
C#|------------------------------------------|

I want to post or [tab]
guest
You may want to rate the tab now too:
select rating
Please do not post tabs as comments. Select "correction" instead!