Oops, an error
Loading. Please wait.

Ok Time For Plan B Bass

version 1
version 1

Whole song

Interactive

4,918 views 1 this week
1 commentread comment
1 2 3 4 5
x 8
add to favorites
×
Save as Personal and add changes to this tab that will be seen only by you. Learn more ›
×
You can save this tab as Personal to edit and correct it or add notes. All changes will be seen only by you. Learn more »
save as personal
new!
launch autoscroll
font size
0
reset
guitar tuner
Autoscroll
slow
fast
+/-
esc
set tempo
stop
Difficulty
novice
Intro

F#|-------------------------|
C#|-------------------------|
G#|-------------------------|
C#|-0---0---0---0---00------|

Let This battle commence.... One Last time....

F#|-------------------------------|
C#|-------------------------------|
G#|-------------------------------|
C#|-22222---22222---00000---00000-|

Look what you've done to yourself...

F#|-------------------------------|
C#|-------------------------------|
G#|-3---3---3---3---3---3---3---3-|
C#|-------------------------------|

F#|-------------------------------|
C#|-------------------------------|
G#|-5---5---5---5---5---5---5---5-|
C#|-------------------------------|

F#|-------------------------------|
C#|-------------------------------|
G#|-------------------------------|
C#|-7---7---7---7---7---7---7---7-|

F#|-------------------------------|
C#|-------------------------------|
G#|-------------------------------|
C#|-7---7---7---7---7---7---8---8-|

The Time has come to think again....

F#|-------------------------------|
C#|-------------------------------|
G#|-------------------------------|
C#|-8---10------2-----------------|

-Scratchy guitar sounds-

F#|-------|
C#|-------| repeat
G#|-------|
C#|-22222-|

Ok! Time for plan B

F#|-------|
C#|-------| repeat
G#|-------|
C#|-22222-|

Lets make the earth move, Lets make the ground shake

F#|--------|
C#|--------| repeat
G#|--------|
C#|-0-0-00-|
Suggest correction
comments
print report bad tab
1 comment total.
0 reply
Bogan2 10 Nov 09, 2013 09:41 PM

that was a really good tab

guest
Wanna post a correction for this tab? Suggest correction