Oops, an error
Loading. Please wait.

Pack Of Thieves Bass Tab

version 1
version 1

Whole song

Interactive

1,553 views 1 this week
no commentswrite comment
1 2 3 4 5
2 more votes to show rating
add to favorites
launch autoscroll
font size
0
reset
guitar tuner
Autoscroll
slow
fast
+/-
esc
set tempo
stop
Help us to improve Ultimate-Guitar.com Take our survey!
×
Author
Difficulty
Tuning
novice
C G C F A D
Pack of Thieves
Enter Shikari
CGCF Tuning (Tune whole step down then drop E string down another step)

Please rate and comment any corrections :)


Intro (0:21)
F|-------------------|
C|-------------------|
G|-------------------|
C|-9~---5~---0~---2~-| x4

F|--------|
C|--------|
G|--------|
C|-0~~~~~-|


Verse
F|----------------------------------------|
C|----------------------------------------|
G|----------------------------------------|
C|-0-0-0000-2-22-9999-5-5-555555-7-7-5575-| x2


Pre Chorus
F|---------------------------------|
C|---------------------------------|
G|---------------------------------|
C|-9-9-9-9-9-9-9-9-5-5-5-5-5-5-5-5-|


F|--------------------------|
C|--------------------------| (12's not 1's & 2's)
G|--------------------------|
C|-0-0000---0-/12-12121212\-| x2 (Whole pre chorus)


Chorus
F|-------------------------------------|
C|-------------------------------------|
G|-------------------------------------|
C|-9-9-99999-5-5-55555-0-0-0-0-0-0-0-0-| x2


Verse
F|----------------------------------------|
C|----------------------------------------|
G|----------------------------------------|
C|-0-0-0000-2-22-9999-5-5-555555-7-7-5575-| x2


Pre Chorus
F|---------------------------------|
C|---------------------------------|
G|---------------------------------|
C|-9-9-9-9-9-9-9-9-5-5-5-5-5-5-5-5-|

F|--------------------------|
C|--------------------------| (12's not 1's & 2's)
G|--------------------------|
C|-0-0000---0-/12-12121212\-| x2 (Whole pre chorus)


Chorus
F|-------------------------------------|
C|-------------------------------------|
G|-------------------------------------|
C|-9-9-99999-5-5-55555-0-0-0-0-0-0-0-0-| x2


Bridge
F|-------------------------|
C|-------------------------|
G|-------------------------|
C|-9~---7~---5~---4~-2-222-|

F|-------------------|      }
C|-------------------|      }
G|-------------------|      }
C|-99-------99-------| x2   }
                            }
                            }  WHOLE THING TWICE
F|-------------------|      }
C|-------------------|      }
G|-------------------|      }
C|-0-00000--2\-------|      }



Chorus
F|-------------------------------------|
C|-------------------------------------|
G|-------------------------------------|
C|-9-9-99999-5-5-55555-0-0-0-0-0-0-0-0-| x2


Outro
F|---------------------------------------------|
C|---------------------------------------------|
G|---------------------------------------------|
C|-0-0-0000-2-22-9999-5-5-555555-7-7-5575-0~~~~|
Suggest correction
Give kudos to tab author, rate the tab!
1 2 3 4 5
comments
print report bad tab
guest
You may want to rate the tab now too:
select rating
Wanna post a correction for this tab? Suggest correction