Oops, an error
Loading. Please wait.

Solidarity Bass Tab

version 1
version 1

Whole song

Interactive

1,959 views 1 this week
2 commentsread comments
1 2 3 4 5
3 more votes to show rating
add to favorites
launch autoscroll
font size
0
reset
guitar tuner
Autoscroll
slow
fast
+/-
esc
set tempo
stop
Help us to improve Ultimate-Guitar.com Take our survey!
×
Author
Tuning
C G C F A D
Artist: Enter Shikari
Song: Solidarity
Album: Common Dreads
Tuning: CGCF

I'm 95% positive it's right.  :]

F|-----------------|
C|-----------------| [x8]
G|-------6-3-------|
C|-0000~-----5-0~--|

F|--------------------------------|
C|-------------------- they're 10-|s not 1's.
G|-555555-88----101010------------| [x8]
C|-----------77-------------------|

F|----------------------|
C|----------------------|
G|----------------------|
C|-0~-0~-0~---0~-0~-0~--|

F|-------------------------|
C|-------------------------| [x8]
G|-------------------------|
C|-00000-0000-1111-00000---|

F|------------------------------|
C|------------------------------| [x6]
G|--------888888--------333333--|
C|-777777--------777777---------|

F|------------------------------|
C|------------------------------| [x1]
G|-888888--------333333---------|
C|--------777777--------777777--|

that's it. hope you enjoy it :]
Suggest correction
Give kudos to tab author, rate the tab!
1 2 3 4 5
comments
print report bad tab
2 comments total.
0 reply
Sidtheboon 149 Aug 26, 2009 10:10 AM

Thats pretty dam inaccurate defiantly not 95%

firstly the intros
F|-----------------|
C|-------2---------| [x8]
G|----------3------|
C|-0000-------5--0-|

and on the bit after on the C string use 8's not 7's

the bridge is fine except for like the middle bit which i can't figuire out either

and on the outro once again on the C string its not 7's its
F|------------------------------|
C|------------------------------| [x6]
G|--------888888--------333333--|
C|-555555--------555555---------|
On the 5 3 bit i might be wrong but the 5 8 bit sounds better than 7 8

but yer not a very accurate tab other than the bridge

0 reply
Sidtheboon 149 Aug 26, 2009 10:15 AM

My bad on the outro it goes
F|------------------------------|
C|------------------------------| [x6]
G|--------888888--------333333--|
C|-555555--------888888---------|

guest
You may want to rate the tab now too:
select rating
Wanna post a correction for this tab? Suggest correction