Oops, an error
Loading. Please wait.

Solidarity Bass Tab

version 2
version 2

Whole song

Interactive

5,456 views 9 this week
1 commentread comment
1 2 3 4 5
x 5
add to favorites
launch autoscroll
font size
0
reset
guitar tuner
Autoscroll
slow
fast
+/-
esc
set tempo
stop
Help us to improve Ultimate-Guitar.com Take our survey!
×
Author
Difficulty
Tuning
novice
C G C F A D
-------------------------------------------------------------------------------
			     Solidarity - Enter Shikari
-------------------------------------------------------------------------------

Tabbed By : Sid
e-mail: Sidtheboon@hotmail.com

Tuning:CGCF

NB in live performance's just before the guitar and drums comes in chris slides down 
12 fret i'd advise doing this because it sounds cool

intro:
F|--------------------------|x8
C|-------------2------------|
G|---------------3----------|
C|-0-0-0-0-0-0-----5-0~-----|

Bridge thing: (NB you can play the notes more than once if you want)
F|------------------|x8
C|------------------|
G|--5~--8~----10~---|
C|---------8~-------|

F|--------------------------|x2-4
C|--------------------------|
G|--------------------------|
C|--0-0-0-0--0-0-0-0-1-1-1--|
the first 2-4 times round do them as single notes not in 4's
then repeat for extra 6-8 times at a slightly faster tempo

Then the "We will sing and sleep..." (not 100% sure on this one)
F|---------------------------------------------------|x till the end and the choir sing
C|---------------------------------------------------|
G|--------------8-8-8-8-8-8-------------3-3-3-3-3-3--|
C|--5-5-5-5-5-5-------------8-8-8-8-8-8--------------|


| /  slide up
| \  slide down
| h  hammer-on
| p  pull-off
| ~  vibrato
| +  harmonic
| x  Mute note
===============================================================================
Suggest correction
comments
print report bad tab
1 comment total.
0 reply
robotfrom94 314 Dec 13, 2013 11:16 AM

It's pretty good, except the breakdowny part sounds off

guest
You may want to rate the tab now too:
select rating
Wanna post a correction for this tab? Suggest correction