Oops, an error
Loading. Please wait.

Sorry Youre Not A Winner Bass Tab

version 1
version 1
11,113 views 3 this week
1 commentread comment
1 2 3 4 5
worth learning
x 5
add to favorites
launch autoscroll
font size
0
reset
guitar tuner
Autoscroll
slow
fast
+/-
esc
set tempo
stop
Help us to improve Ultimate-Guitar.com Take our survey!
×
Author
iheart_a7x 3,941
tabbed by: Valerie L
e-mail: iloled@yahoo.com

Tuning: Drop C

Intro

F|--------------------------------------|
C|--------------------------------------|
G|--------------------------------------|
C|-000-0-0-0-0-0--8888-8-10-10-10101010-| x2

F|---------------|
C|---------------|
G|-8\------------|
C|-----0--10--0--| 

Verse:
F|------------------------------------|    |-----|
C|------------------------------------|    |-----|
G|------------------------------------|    |-8\--|
C|-0000-0-0-0-0-0--8888-8-10-10-10-10-| x2 |-----|

F|------------------------------------|    
C|------------------------------------|    
G|------------------------------------|    
C|-0000-0-0-0-0-0--8888-8-10-10-10-10-| x2

Chorus:
F|----------------------------------------------------------------------|  
C|----------------------------------------------------------------------|    
G|----------------------------------------------------------------------|    
C|-0-0-0-0-00-00-000-10101010-8888-888-88-33333-33-33-333-5555-8888-888-| x2

F|---------|
C|---------|
G|---------|
C|--10--0--| 

Verse:
F|------------------------------------|    |-----|
C|------------------------------------|    |-----|
G|------------------------------------|    |-8\--|
C|-0000-0-0-0-0-0--8888-8-10-10-10-10-| x2 |-----|

F|------------------------------------|    
C|------------------------------------|    
G|------------------------------------|    
C|-0000-0-0-0-0-0--8888-8-10-10-10-10-| x2

Chorus x2

Breakdown:
F|------------|    
C|------------|    
G|------------|    
C|-0-0-0--0~--|

F|--------------------------------------------------|    
C|-00000000--------88888888--10101010101010--575----|    
G|-----------8--9--------------------------------94-|    
C|--------------------------------------------------| x2

Then back to Chorus

WHAT WHAT
A bunch of open strings and you're done!
Suggest correction
What's this?
You can suggest a correction to this tab. Community and Mods will review your correction and vote to approve or reject it.
comments
print report bad tab
1 comment total.
0 reply
alyxmelia 333 wrote on September 28 2007, 07:12 am

not the way i'd play it mate really bad, sorry (N)

guest
You may want to rate the tab now too:
select rating
Please do not post tabs as comments. Select "correction" instead!