Oops, an error
Loading. Please wait.
We have an official Sorry Youre Not A Winner tab made by UG professional guitarists. Check out the tab »
×
3,014 views 1 this week
7 commentsread comments
1 2 3 4 5
x 6
add to favorites
guitar tuner
Autoscroll
slow
fast
+/-
esc
set tempo
stop
Author
File Format
Filesize
Instruments
.ptb
12 Kb
lead_guitars
"Sorry Youre Not A Winner"
demo version
Play now

or get full version for Free

×
Get full version now!
Learn and play this song
in Tab Pro
Try for free

or get $10 off Welcome Bonus

Get welcome bonus
Get access to Tab Pro version of “Sorry Youre Not A Winner”!
Tab Pro is a premium guitar tab service, available on PC, Mac, iOS and Android
TRY FOR FREE
Your download will start in 7 seconds
×
Like this song? We have more! Follow us on Facebook for daily tips, lessons and other guitar-related content.
To download “Sorry Youre Not A Winner” Power tab click button below
Please note that you must have Power Tab software installed on your
computer in order to view this file.
Suggest correction
comments
report bad tab
7 comments total. Showing first comments.
0 reply
zimbo125 52 Jan 29, 2007 09:05 AM

the chorus is completely wrong

Eb|-----------------------|
Bb|-----------------------|
Gb|-----------------------|
Db|-------10-----10----10-|
Ab|-0-0-0-12-000-12-00-12-|
Db|-0-0-0----000----00----|

Eb|-------------|
Bb|-------------|
Gb|-------------|
Db|-10-10-10-10-|
Ab|-10-10-10-10-|
Db|-10-10-10-10-|

Eb|--------------|
Bb|--------------|
Gb|--------------|
Db|-8-8-8-8--8-8-|
Ab|-8-8-8-8--8-8-|
Db|-8-8-8-8--8-8-|

Eb|-----------------------|
Bb|-----------------------|
Gb|-----------------------|
Db|-3-3-3-3--3-3-3-3--3-3-|
Ab|-3-3-3-3--3-3-3-3--3-3-|
Db|-3-3-3-3--3-3-3-3--3-3-|

Eb|---------|
Bb|---------|
Gb|---------|
Db|-5-5-5-5-|
Ab|-5-5-5-5-|
Db|-5-5-5-5-|

Eb|--------------|
Bb|--------------|
Gb|--------------|
Db|-8-8-8-8--8-8-|
Ab|-8-8-8-8--8-8-|
Db|-8-8-8-8--8-8-|

0 reply
zimbo125 52 Jan 29, 2007 09:05 AM

thats the right bit btw

0 reply
neoamir 1,063 Aug 03, 2007 01:24 PM

great, though i hate the song

guest
You may want to rate the tab now too:
select rating