Oops, an error
Loading. Please wait.

Sorry Youre Not A Winner Bass Tab

version 2
version 2
4,951 views 1 this week
no commentswrite comment
1 2 3 4 5
3 more votes to show rating
add to favorites
launch autoscroll
font size
0
reset
guitar tuner
Autoscroll
slow
fast
+/-
esc
set tempo
stop
Help us to improve Ultimate-Guitar.com Take our survey!
×
Difficulty
novice
First tab. This song is awesome for beginners, seeing as its pretty simple.
Tuning is drop D, Im sure this is right, but my bass might be half step down rather than 
D completely, but that would be my tuners fault. If it doesn't sound right move each 
except for the 0's up one fret.

Techno Intro (if you have the album version you will understand.)
G|------------------------------------------|x2
D|------------------------------------------|
A|------------------------------------------|
D|-000-0-0--000-0-0--077-7-7--799-9-9-------|

Then this before the guitar.
G|----|
D|----|
A|----|
D|-00-|

G|-------|
D|-------|
A|-------|
D|-10/00-| (clap clap clap)

Verse (I'm pretty sure its 7's and 9's, some say 8's and 10's but I think they dont sound right)
G|--------------------------------------|x2
D|--------------------------------------|
A|--------------------------------------|
D|-00-0-0--000-0-0--077-7-7--799-9-9----|

*let these notes ring.
G|----------------------------------------------|x2
D|----------------------------------------------|
A|----------------------------------------------|
D|-000-0-0*--000-0-0*--077-7-7*--79-9-9*--------|

chorus
G|-----------------------------------------------------------------|x2
D|-----------------------------------------------------------------|
A|-----------------------------------------------------------------|
D|-0-0-0-11-00-0-11-0011-9999-7777-777-2222-2222-4444-7777-77------|

BIG NOISE
G|----|
D|----|
A|----|
D|-00-|

G|-------|
D|-------|
A|-------|
D|-9/00--| guitar part then /CLAP CLAP CLAP/

Verse again.
G|--------------------------------------|x2
D|--------------------------------------|
A|--------------------------------------|
D|-00-0-0--000-0-0--077-7-7--799-9-9----|

*let these notes ring.
G|----------------------------------------------|x2
D|----------------------------------------------|
A|----------------------------------------------|
D|-000-0-0*--000-0-0*--077-7-7*--79-9-9*--------|


Chorus
G|-----------------------------------------------------------------|x2
D|-----------------------------------------------------------------|
A|-----------------------------------------------------------------|
D|-0-0-0-11-00-0-11-0011-9999-7777-777-2222-2222-4444-7777-77------|

G|------------|
D|------------|
A|------------|
D|-0-00-11*---|

The bass doesnt come in for a bit, but you will hear it, just before the vocals. Oh and 
first notes are 11's not 1's.

G|------------------------------------|
D|-1111111111111111-13131313-14141414-|
A|------------------------------------|
D|------------------------------------|

G|-1414141414141414-16161616----------| x2
D|---------------------------16181614-|
A|------------------------------------|
D|------------------------------------|

On final time dont do the 16181614's on the D just the 16's on the G.

Chorus
G|-----------------------------------------------------------------|x2
D|-----------------------------------------------------------------|
A|-----------------------------------------------------------------|
D|-0-0-0-11-00-0-11-0011-9999-7777-777-2222-2222-4444-7777-77------|

G|---------------|-------------------------|x3
D|---------------|-------------------------|
A|---------------|-------------------------|
D|-0-(pause...)--|-0*-00-11-000-0-11-00-11-|

The "what" thing comes just after this.
G|-------|
D|-------|
A|-------|
D|-00000-|

G|---------------------------------------------|x3
D|---------------------------------------------|
A|---------------------------------------------|
D|-0-0-00-11-000-0-11-00-11-00000-0000-0-0-0-0-|

Outro
G|-----------------------------------|
D|-----------------------------------|
A|-----------------------------------|
D|-00-00-00-00-00-00-22-22-2-222-----|

END ON:
G|--------|
D|--------|
A|--------|
D|-0------|


Nice one.
Suggest correction
Give kudos to tab author, rate the tab!
1 2 3 4 5
comments
print report bad tab
guest
You may want to rate the tab now too:
select rating
Wanna post a correction for this tab? Suggest correction