Oops, an error
Loading. Please wait.

Sorry Youre Not A Winner Bass Tab

version 3
version 3
5,527 views 7 this week
3 commentsread comments
1 2 3 4 5
please rate
add to favorites
launch autoscroll
font size
0
reset
guitar tuner
Tab Pro tools
  • play this tab
  • loop segment
  • change instrument
  • show fretboard
  • metronome
×
Best way to learn
"Sorry Youre Not A Winner"
Autoscroll
slow
fast
+/-
esc
set tempo
stop
Contributor
Difficulty
novice
Enter Shikari
Sorry you're not a winner

sorry to everyone who doesnt have a five string
but i'm so sure that this is right
Obviously you don't have to drop D your bass just makes it slightly 
easier to play

don't let ring
G|--------------------------------------|x2
D|--------------------------------------|
A|--------------------------------------|
D|--------------------77-7-7--799-9-9---|
B|-222-2-2--222-2-2--2------------------|

big noise before guitar part
G|----|
D|----|
A|----|
D|----|
B|-22-|

G|-------|
D|-------|
A|-------|
D|-9/----| guitar part then /CLAP CLAP CLAP/
B|---22--|

verse
G|------------------------------------------|x2
D|------------------------------------------|
A|------------------------------------------|
D|-------------------77-7-7--799-9-9--------|
B|-22-2-2--222-2-2--2-----------------------|

second part of verse is same but ever so slightly slower - also let the second of the
stacatto notes ring for a sec
G|------------------------------------------|x2
D|------------------------------------------|
A|------------------------------------------|
D|----------------------77-7-7*--799-9-9*---|
B|-222-2-2*--222-2-2*--2--------------------|

chorus
G|-------------------------------------------------------------|x2
D|-------------------------------------------------------------|
A|-------4-------4----4----------------------------------------|
D|-----------------------9999-7777-777-2222-2222-4444-7777-77--|
B|-2-2-2----22-2----22-----------------------------------------|

BIG NOISE
G|----|
D|----|
A|----|
D|----|
B|-22-|

G|-------|
D|-------|
A|-------|
D|-9/----| guitar part then /CLAP CLAP CLAP/
B|---22--|

same as previous verse
G|--------------------------------------|x2
D|--------------------------------------|
A|--------------------------------------|
D|-------------------77-7-7--799-9-9----|
B|-22-2-2--222-2-2--2-------------------|

G|------------------------------------------|x2
D|------------------------------------------|
A|------------------------------------------|
D|----------------------77-7-7*--799-9-9*---|
B|-222-2-2*--222-2-2*--2--------------------|

same as previous chorus
G|-------------------------------------------------------------|x2
D|-------------------------------------------------------------|
A|-------4-------4----4----------------------------------------|
D|-----------------------9999-7777-777-2222-2222-4444-7777-77--|
B|-2-2-2----22-2----22-----------------------------------------|
                          (tens)

G|---------|
D|---------|
A|------4*-|
D|---------|
B|-2-22----|

-bass does not play first part of interlude-
kicks in with vocals after two guitar riffs
G|--------------------------------------|
D|-------------------77777777-99999999--|
A|-44444444-66667777--------------------|
D|--------------------------------------|
B|--------------------------------------|

chorus
G|--------------------------------------------------------------|x2
D|--------------------------------------------------------------|
A|-------4--------4-----4---------------------------------------|
D|------------------------99999-777-777-2222-2222-4444-7777-77--|
B|-2-2-2----22-2----22------------------------------------------|

G|----------------|--------------------------|x3
D|----------------|--------------------------|
A|----------------|-------4---------4------4-|
D|----------------|--------------------------|
B|-2-~------------|-2*-22----222-2----22-----|

very fast then stopped from ringing
G|-------|
D|-------|
A|-------|
D|-------|-"what, what, what?"
B|-22222-|

G|------------------------------------------|x3
D|------------------------------------------|
A|--------4-------4-----4-------------------|
D|------------------------------------------|
B|-2-2-22---222-2---22---22222-2222-2-2-2-2-|

ROAR!
G|---------------------------------|
D|---------------------------------|
A|---------------------------------|
D|---------------------------------|
B|-22-22-22-33-33-33-55-55-55-555--|

END ON:
D|----|
B|-22-|
comments
We did not receive enough feedback on this tab! Please rate:
print report bad tab
1 2 3 4 5
3 comments total.
0 reply
ganny1234 wrote on July 15 2008, 09:02 pm

omg this is the only tab with the right patern but its in 5 string dam

0 reply
LCAY124 wrote on October 19 2008, 12:24 am

OK ppl are retarded. no offense to you, Synyster6661, but people dont realize that the tab is in DROP D FLAT. not a very hard rhythm to learn either for those complaining.

0 reply
bassmatthew12 wrote on January 26 2009, 04:36 pm

in other words
tune your E string down to C#

I want to post or [tab]
guest
You may want to rate the tab now too:
select rating
Please do not post tabs as comments. Select "correction" instead!