Oops, an error
Loading. Please wait.

Sorry Youre Not A Winner Bass Tab

version 4
version 4
6,326 views 3 this week
1 commentread comment
1 2 3 4 5
please rate
add to favorites
launch autoscroll
font size
0
reset
guitar tuner
Autoscroll
slow
fast
+/-
esc
set tempo
stop
Help us to improve Ultimate-Guitar.com Take our survey!
×
Author
Difficulty
novice
My last version of this song fit a certain guitar tab. I looked at some more guitar tabs 
decided to make a better one. This bass tab fits another guitar tab.

(intro)
E| 2-------|2-1-----|
A| --------|--------|
D| --------|--------|  (clap, clap, clap)
G| --------|--------|

(play verse 4 times)
E| ------3-|--------|8-8-8---|8-8-8---|
A| 2--3----|2--3----|--------|--------|
D| --------|------5-|--------|--------|
G| --------|--------|--------|--------|

(play chorus four times)
E| 0000-0-0|-0-h7---|0-0-h7--|
A| --------|--------|--------|
D| --------|--------|--------|
G| --------|--------|--------|

E| 3333-3333|33------|
A| ---------|--------|
D| ---------|--------|
G| ---------|--------|

(intro)
E| 2-------|2-1-----|
A| --------|--------|
D| --------|--------|  (clap, clap, clap)
G| --------|--------|

(play verse 4 times)
E| ------3-|--------|8-8-8---|8-8-8---|
A| 2--3----|2--3----|--------|--------|
D| --------|------5-|--------|--------|
G| --------|--------|--------|--------|

(play chorus four times)
E| 0000-0-0|-0-h7---|0-0-h7--|
A| --------|--------|--------|
D| --------|--------|--------|
G| --------|--------|--------|

E| 3333-3333|33------|
A| ---------|--------|
D| ---------|--------|
G| ---------|--------|

(Breakdown - no bass)

(play chorus four times)
E| 0000-0-0|-0-h7---|0-0-h7--|
A| --------|--------|--------|
D| --------|--------|--------|
G| --------|--------|--------|

E| 3333-3333|33------|
A| ---------|--------|
D| ---------|--------|
G| ---------|--------|

(play three times)
E| 0-0-0-h7|0-0-h7--|
A| --------|--------|
D| --------|--------|
G| --------|--------|

E| 33333333|
A| --------| (what? what? what?)
D| --------|
G| --------|

E| 0-0-0-h7|0-0-h7--|0-0-h7--|
A| --------|--------|--------|
D| --------|--------|--------|
G| --------|--------|--------|

(play three times)
E| 33333333|0-0-0--0|-0------|
A| --------|--------|--------|
D| --------|--------|--------|
G| --------|--------|--------|

E| 00-00-00|-00-|
A| --------|----|
D| --------|----|
G| --------|----|

(play three times)
E| 00-00-00|00--11-11|-11-11-|33-33-33|-33-||-00|
A| --------|---------|-------|--------|----||---|
D| --------|---------|-------|--------|----||---|
G| --------|---------|-------|--------|----||---|

Tabbed by Shavo.
Suggest correction
Give kudos to tab author, rate the tab!
1 2 3 4 5
comments
print report bad tab
1 comment total.
0 reply
Craig-Bass1995 177 wrote on August 28 2009, 09:51 am

You Wrote This Tab Upside-Down. And, I Am Sorry To Say, It Is Rather Off. Also It Is In Drop-D, Not Standard.

guest
You may want to rate the tab now too:
select rating
Please do not post tabs as comments. Select "correction" instead!