Oops, an error
Loading. Please wait.
We have an official Sorry Youre Not A Winner tab made by UG professional guitarists. Check out the tab »
×
13,725 views 45 this week
3 commentsread comments
1 2 3 4 5
x 7
add to favorites
×
Save as Personal and add changes to this tab that will be seen only by you. Learn more ›
×
You can save this tab as Personal to edit and correct it or add notes. All changes will be seen only by you. Learn more »
launch autoscroll
font size
0
reset
how to read this tab
guitar tuner
backing track
0:00
0:00
edit
Autoscroll
slow
fast
+/-
esc
set tempo
stop
                  SORRY YOU'RE NOT A WINNER - ENTER SHIKARI

Tabbed By: Alex Mallows

x : Palm Mute
* : Pinch Harmonic
/ : Slide
-x-
-x-
-x-
-x- : Strum the strings past the nut
-x-
-x-

Intro

d#|--------------------------------------------------------------------|
A#|--------------------------------------------------------------------|
F#|----------------------5---------------------------------------------| 
C#|-----2-3----------2-3----------10---10---10----------10----10----10-| 
G#|---------3---------------------12---12---12----------12----12----12-| 
C#|-0-0--0-0-----0-0--0-0-----8-8----8----8-------10-10----10----10----| 
    x x  x x     x x  x x     x x    x    x       x  x     x     x
d#|----------------------------------------------|
A#|----------------------------------------------|
F#|----------------------5*----------------------|
C#|-----2-3----------2-3----------10---10---10---|
G#|---------3---------------------12---12---12---|
C#|-0-0--0-0-----0-0--0-0-----8-8----8----8------|
  x x  x x     x x  x x     x x    x    x


Verse

d#|--------------------------------------------------------------------|
A#|--------------------------------------------------------------------|
F#|----------------------5---------------------------------------------| x4
C#|-----2-3----------2-3----------10---10---10----------10----10----10-| 
G#|---------3---------------------12---12---12----------12----12----12-| 
C#|-0-0--0-0-----0-0--0-0-----8-8----8----8-------10-10----10----10----| 
    x x  x x     x x  x x     x x    x    x       x  x     x     x


Chorus (Slide at the end only done first time)

d#|--------------------------------------------------------------------|
A#|--------------------------------------------------------------------|
F#|---------5---------5------5-----------------------------------------|
C#|-0--0--0-7--0-0--0-7--0-0-7--10-10-10-10---10-10-10-10---10-10-10/--|
G#|-0--0--0----0-0--0----0-0----12-12-12-12---12-12-12-12---12-12-12/--|
C#|-0--0--0----0-0--0----0-0----10-10-10-10---8--8--8--8----8--8--8-/--|
    x  x  x    x x  x    x x                                

d#|-----------------------------------------------------------|
A#|-----------------------------------------------------------|
F#|---------5---------5------5--5-5-5-5-----------------------|
C#|---------7---------7------7--7-7-7-7---10-10-10-10--10-10--| X2
G#|-3--3--3----3-3--3----3-3----5-5-5-5---12-12-12-12--12-12--|
C#|-3--3--3----3-3--3----3-3----5-5-5-5---8--8--8--8---8--8---|
    x  x  x    x x  x    x x                                

Pre-verse

d#|--------------------------------------------------------------------|
A#|--------------------------------------------------------------------|
F#|----------------------5---------------------------------------------| 
C#|-----2-3----------2-3----------10---10---10----------10----10----10-| 
G#|---------3---------------------12---12---12----------12----12----12-| 
C#|-0-0--0-0-----0-0--0-0-----8-8----8----8-------10-10----10----10----| 
    x x  x x     x x  x x     x x    x    x       x  x     x     x
d#|----------------------------------------------|
A#|----------------------------------------------|
F#|----------------------5*----------------------|
C#|-----2-3----------2-3----------10---10---10---|
G#|---------3---------------------12---12---12---|
C#|-0-0--0-0-----0-0--0-0-----8-8----8----8------|
  x x  x x     x x  x x     x x    x    x


Verse

d#|--------------------------------------------------------------------|
A#|--------------------------------------------------------------------|
F#|----------------------5---------------------------------------------| x4
C#|-----2-3----------2-3----------10---10---10----------10----10----10-| 
G#|---------3---------------------12---12---12----------12----12----12-| 
C#|-0-0--0-0-----0-0--0-0-----8-8----8----8-------10-10----10----10----| 
    x x  x x     x x  x x     x x    x    x       x  x     x     x

Chorus (Slide at the end only done first time)

d#|--------------------------------------------------------------------|
A#|--------------------------------------------------------------------|
F#|---------5---------5------5-----------------------------------------|
C#|-0--0--0-7--0-0--0-7--0-0-7--10-10-10-10---10-10-10-10---10-10-10/--|
G#|-0--0--0----0-0--0----0-0----12-12-12-12---12-12-12-12---12-12-12/--|
C#|-0--0--0----0-0--0----0-0----10-10-10-10---8--8--8--8----8--8--8-/--|
    x  x  x    x x  x    x x                               
d#|-----------------------------------------------------------|
A#|-----------------------------------------------------------|
F#|---------5---------5------5--5-5-5-5-----------------------|
C#|---------7---------7------7--7-7-7-7---10-10-10-10--10-10--| X2
G#|-3--3--3----3-3--3----3-3----5-5-5-5---12-12-12-12--12-12--|
C#|-3--3--3----3-3--3----3-3----5-5-5-5---8--8--8--8---8--8---|
    x  x  x    x x  x    x x                                

d#|----------------------------|
A#|----------------------------|
F#|----------------------------|
C#|--0--0--0-0-----------------|
G#|--0--0--0-0--(Let Ring)-----|
C#|--0--0--0-0-----------------|
     x  x  x 
                                  

(clean) (Gradually lift your palm as it nears the drop to the chorus)

d#|-8--------8-------8-------|
A#|-10-------10------8-------|
F#|-10-(X16)-10-(X8)-10-(X8)-|
C#|-0--------8-------10------| X6
G#|--------------------------|
C#|--------------------------|
   xxxxxxxxxxxxxxxxxxxxxxxxxx


LAST CHORUS

d#|----------------------------------------------------------------|
A#|---------8---------8------8-------------------------------------|
F#|---------10--------10-----10------------------------------------|
C#|-0--0--0-10-0-0--0-10-0-0-10-10-10-10-10---10-10-10-10---10-10--|
G#|-0--0--0----0-0--0----0-0----12-12-12-12---12-12-12-12---12-12--|
C#|-0--0--0----0-0--0----0-0----10-10-10-10---8--8--8--8----8--8---|
    x  x  x    x x  x    x x                               
d#|----------------------------------------------------------|
A#|----------------------------------------------------------|
F#|---------5---------5------5--5-5-5-5----------------------|
C#|---------7---------7------7--7-7-7-7---10-10-10-10--10-10-| X2
G#|-3--3--3----3-3--3----3-3----5-5-5-5---12-12-12-12--12-12-|
C#|-3--3--3----3-3--3----3-3----5-5-5-5---8--8--8--8---8-8---|
    x  x  x    x x  x    x x   

                 
Breakdown

d#|----------------------|
A#|----------------------|
F#|---------5---------5--|
C#|-0--0--0-7--0-0--0-7--|
G#|-0--0--0----0-0--0----|
C#|-0--0--0----0-0--0----|
    x  x  x    x x  x  
d#|-----------------------------|
A#|-----------------------------|
F#|---------5---------5------5--|
C#|-0--0--0-7--0-0--0-7--0-0-7--| x3
G#|-0--0--0----0-0--0----0-0----|
C#|-0--0--0----0-0--0----0-0----|
    x  x  x    x x  x    x x 

d#|------------|                 Que?
A#|------------|
F#|------------|
C#|-000000000--|   What?
G#|-000000000--|
C#|-000000000--|         What?
    xxxxxxxxx   

d#|-----------------------------|
A#|-----------------------------|
F#|---------5---------5------5--|
C#|-0--0--0-7--0-0--0-7--0-0-7--| 
G#|-0--0--0----0-0--0----0-0----|
C#|-0--0--0----0-0--0----0-0----|
    x  x  x    x x  x    x x 

d#|--------------------------| 
A#|--------------------------|
F#|--------------------------|
C#|-000000000--0-0--0---0-0--| x3   
G#|-000000000--0-0--0---0-0--|
C#|-000000000--0-0--0---0-0--|      
    xxxxxxxxx  x x  x   x x

d#|-----------------------x-|
A#|-----------------------x-|
F#|-----------------------x-|
C#|-0-0--0-0--0-0--0-0----x-|
G#|-0-0--0-0--0-0--0-0----x-|
C#|-0-0--0-0--0-0--0-0----x-|
    x x  x x  x x  x x
   
Outro (Palm mute very hard)

d#|------------------------------------------------------------------------|
A#|------------------------------------------------------------------------|
F#|-------------------------------------------------------------(x4)-------|
C#|-0-0--0-0--0-0--0-0--1-1--1-1--1-1--1-1--3-3--3-3--3-3--3-3--------0-0--|
G#|-0-0--0-0--0-0--0-0--1-1--1-1--1-1--1-1--3-3--3-3--3-3--3-3--------0-0--|
C#|-0-0--0-0--0-0--0-0--1-1--1-1--1-1--1-1--3-3--3-3--3-3--3-3--------0-0--|
    x x  x x  x x  x x  x x  x x  x x  x x  x x  x x  x x  x x        x x


This is how i've been playing it for a couple years now, i hope my ears are correct on this one :)
Enjoy ,Rate, Comment.


            
            
Suggest correction
Creating personal tab
Creating personal tab
You can edit any tab online and save it as your Personal.

You can edit, replace or remove any tab part or add personal notes – all changes will be seen only by you.

Personal tabs can be accessed anytime from any device, even offline.
Learn more »
comments
print report bad tab
3 comments total.
+1 reply
bob987 10 Nov 03, 2010 12:11 PM

Spot on! really well done

0 reply
LoveSicKWAR 31 Apr 03, 2013 08:44 AM

Brilliant :D!

0 reply
amahmud 137 Dec 21, 2014 05:43 AM

****in hell how is rory doing the intro so fast

guest
You may want to rate the tab now too:
select rating
Wanna post a correction for this tab? Suggest correction