Oops, an error
Loading. Please wait.

Sorry Youre Not A Winner Bass Tab

version 6
version 6
14,914 views 12 this week
3 commentsread comments
1 2 3 4 5
x 8
add to favorites
launch autoscroll
font size
0
reset
guitar tuner
Autoscroll
slow
fast
+/-
esc
set tempo
stop
Help us to improve Ultimate-Guitar.com Take our survey!
×
Author
Difficulty
Tuning
novice
C# G# C# F# A# D#
I got tired of UG not having a correct bass tab for this song, they're all in the wrong
key. Good thing I'm not tone deaf eh? :P enjoy the tab! Put some hard work into this to
make it as perfect as possible. Rate/Comment and enjoy!

Here is the music video for the song, with the added techno intro before the bass and
drums kick it off. This is not the song I based the tab off of however, I based it off of
the song on the album listed below, so if you try and match up the video to the tab 
times, just add 14 seconds to the times on the tab.
http://www.youtube.com/watch?v=wngyXhTx4pc

Song: Sorry You're Not A Winner
Artist :Enter Shikari
Album: Take To The Skies
Duration: 3:52

Tuning: Drop C#

~ = let note ring
\ = slide down
/\ = slide slightly up then slide down
^-t-^ = triplet
(#) = the fret number is an optional note

There are sixteen "-"'s per measure to show rhythm. If you don't know much simple
rhythmic theory no sweat the rhythms on this song aren't very hard.

Intro
   1 & 2 & 3 & 4 &  1 & 2 & 3 & 4 &  1 & 2 & 3 & 4 &  1 & 2 & 3 & 4 &
F#:----------------|----------------|----------------|----------------|
C#:----------------|----------------|----------------|----------------|
G#:----------------|----------------|----------------|----------------|
C#:0-0---0-------0-|--0---0---0-----|8-8---8-------8-|--10--10--10\---|

   1 & 2 & 3 & 4 &  1 & 2 & 3 & 4 &  1 & 2 & 3 & 4 &  1 & 2 & 3 & 4 &
F#:----------------|----------------|----------------|----------------|
C#:----------------|----------------|----------------|----------------|
G#:----------------|----------------|----------------|----------------|
C#:0-0---0-------0-|--0---0---0-----|8-8---8-------8-|--10--10--10/\--|

   1 & 2 & 3 & 4 &  1 & 2 & 3 & 4 &  1 & 2 & 3 & 4 &  1 & 2 & 3 & 4 &
F#:----------------|----------------|----------------|----------------|
C#:----------------|----------------|----------------|----------------|
G#:----------------|----------------|----------------|----------------|
C#:0---------------|----------------|----------------|------------10--|
		      (guitar players through here)		 *rawr*

   1 & 2 & 3 & 4 &  1 & 2 & 3 & 4 &  1 & 2 & 3 & 4 &  1 & 2 & 3 & 4 &
F#:----------------|----------------|----------------|----clap--------|
C#:----------------|----------------|----------------|--------clap----|
G#:----------------|----------------|----------------|------------clap|
C#:0---------------|----------------|----------------|----------------|
                      (guitar players through here)



Verse 1 - "Scratch card glory..." - 0:18 (played nearly the same as intro)

   1 & 2 & 3 & 4 &  1 & 2 & 3 & 4 &  1 & 2 & 3 & 4 &  1 & 2 & 3 & 4 &
F#:----------------|----------------|----------------|----------------|
C#:----------------|----------------|----------------|----------------|
G#:----------------|----------------|----------------|----------------|
C#:0-0---0-------0-|--0---0---0-----|8-8---8-------8-|--10--10--10\---|

F#:----------------|----------------|----------------|------------------|
C#:----------------|----------------|----------------|------------------|
G#:----------------|----------------|----------------|------------------|
C#:0-0---0-------0-|--0---0---0-----|8-8---8-------8-|--10--10--10/\----|


   1 & 2 & 3 & 4 &  1 & 2 & 3 & 4 &  1 & 2 & 3 & 4 &  1 & 2 & 3 & 4 &
F#:----------------|----------------|----------------|----------------|
C#:----------------|----------------|----------------|----------------|
G#:----------------|----------------|----------------|----------------|
C#:0-0---0-------0-|--0---0---0-----|8-8---8-------8-|--10--10--10\---|

   1 & 2 & 3 & 4 &  1 & 2 & 3 & 4 &  1 & 2 & 3 & 4 &  1 & 2 & 3 & 4 &
F#:----------------|----------------|----------------|----------------|
C#:----------------|----------------|----------------|----------------|
G#:----------------|----------------|----------------|----------------|
C#:0-0---0-------0-|--0---0---0-----|8-8---8-------8-|--10--10--10\---|



Chorus - "Sorry you're not..." - 0:36
   1 & 2 & 3 & 4 &  1 & 2 & 3 & 4 &  1 & 2 & 3 & 4 &  1 & 2 & 3 & 4 &
F#:----------------|----------------|----------------|------------------|
C#:----------------|----------------|----------------|------------------|
G#:----------------|---(5)-----(5)--|----------------|------------------|
C#:0--0--0-----0-0-|--0-----0-0-----|10101010----8-8-|8-8-----8888------|
   ^--t--^                           ^these are 10----------------------|s

   1 & 2 & 3 & 4 &  1 & 2 & 3 & 4 &  1 & 2 & 3 & 4 &  1 & 2 & 3 & 4 &
F#:----------------|----------------|----------------|----------------|
C#:-------(3)------|---(3)-----(3)--|----------------|----------------|
G#:----------------|----------------|----------------|----------------|
C#:3-3---3-----3-3-|--3-----3-3-----|5-5-5-5-----8-8-|8-8-----8888\---|

   1 & 2 & 3 & 4 &  1 & 2 & 3 & 4 &  1 & 2 & 3 & 4 &  1 & 2 & 3 & 4 &
F#:----------------|----------------|----------------|------------------|
C#:----------------|----------------|----------------|------------------|
G#:----------------|---(5)-----(5)--|----------------|------------------|
C#:0--0--0-----0-0-|--0-----0-0-----|10101010----8-8-|8-8-----8888------|
   ^--t--^                           ^10--------------------------------|s again

   1 & 2 & 3 & 4 &  1 & 2 & 3 & 4 &  1 & 2 & 3 & 4 &  1 & 2 & 3 & 4 &
F#:----------------|----------------|----------------|----------------|
C#:-------(3)------|---(3)-----(3)--|----------------|----------------|
G#:----------------|----------------|----------------|----------------|
C#:3-3---3-----3-3-|--3-----3-3-----|5-5-5-5-----8-8-|8-8-----8888\---|

   1 & 2 & 3 & 4 &  1 & 2 & 3 & 4 &  1 & 2 & 3 & 4 &  1 & 2 & 3 & 4 &
F#:----------------|----------------|----------------|----------------|
C#:----------------|----------------|----------------|----------------|
G#:----------------|----------------|----------------|----------------|
C#:0---------------|----------------|----------------|------------10--|
		      (guitar players through here)		 *rawr*

   1 & 2 & 3 & 4 &  1 & 2 & 3 & 4 &  1 & 2 & 3 & 4 &  1 & 2 & 3 & 4 &
F#:----------------|----------------|----------------|----clap--------|
C#:----------------|----------------|----------------|--------clap----|
G#:----------------|----------------|----------------|------------clap|
C#:0---------------|----------------|----------------|----------------|
                      (guitar players through here)



Verse 2 - "Scratch card glory..." - 1:06
   1 & 2 & 3 & 4 &  1 & 2 & 3 & 4 &  1 & 2 & 3 & 4 &  1 & 2 & 3 & 4 &
F#:----------------|----------------|----------------|----------------|
C#:----------------|----------------|----------------|----------------|
G#:----------------|----------------|----------------|----------------|
C#:0-0---0-------0-|--0---0---0-----|8-8---8-------8-|--10--10--10\---|

F#:----------------|----------------|----------------|------------------|
C#:----------------|----------------|----------------|------------------|
G#:----------------|----------------|----------------|------------------|
C#:0-0---0-------0-|--0---0---0-----|8-8---8-------8-|--10--10--10/\----|


   1 & 2 & 3 & 4 &  1 & 2 & 3 & 4 &  1 & 2 & 3 & 4 &  1 & 2 & 3 & 4 &
F#:----------------|----------------|----------------|----------------|
C#:----------------|----------------|----------------|----------------|
G#:----------------|----------------|----------------|----------------|
C#:0-0---0-------0-|--0---0---0-----|8-8---8-------8-|--10--10--10\---|

   1 & 2 & 3 & 4 &  1 & 2 & 3 & 4 &  1 & 2 & 3 & 4 &  1 & 2 & 3 & 4 &
F#:----------------|----------------|----------------|----------------|
C#:----------------|----------------|----------------|----------------|
G#:----------------|----------------|----------------|----------------|
C#:0-0---0-------0-|--0---0---0-----|8-8---8-------8-|--10--10--10\---|



Chorus - "Sorry you're not..." - 1:24
   1 & 2 & 3 & 4 &  1 & 2 & 3 & 4 &  1 & 2 & 3 & 4 &  1 & 2 & 3 & 4 &
F#:----------------|----------------|----------------|------------------|
C#:----------------|----------------|----------------|------------------|
G#:----------------|---(5)-----(5)--|----------------|------------------|
C#:0--0--0-----0-0-|--0-----0-0-----|10101010----8-8-|8-8-----8888------|
   ^--t--^                           ^these are 10----------------------|s

   1 & 2 & 3 & 4 &  1 & 2 & 3 & 4 &  1 & 2 & 3 & 4 &  1 & 2 & 3 & 4 &
F#:----------------|----------------|----------------|----------------|
C#:-------(3)------|---(3)-----(3)--|----------------|----------------|
G#:----------------|----------------|----------------|----------------|
C#:3-3---3-----3-3-|--3-----3-3-----|5-5-5-5-----8-8-|8-8-----8888\---|

   1 & 2 & 3 & 4 &  1 & 2 & 3 & 4 &  1 & 2 & 3 & 4 &  1 & 2 & 3 & 4 &
F#:----------------|----------------|----------------|------------------|
C#:----------------|----------------|----------------|------------------|
G#:----------------|---(5)-----(5)--|----------------|------------------|
C#:0--0--0-----0-0-|--0-----0-0-----|10101010----8-8-|8-8-----8888------|
   ^--t--^                           ^10--------------------------------|s again

   1 & 2 & 3 & 4 &  1 & 2 & 3 & 4 &  1 & 2 & 3 & 4 &  1 & 2 & 3 & 4 &
F#:----------------|----------------|----------------|----------------|
C#:-------(3)------|---(3)-----(3)--|----------------|----------------|
G#:----------------|----------------|----------------|----------------|
C#:3-3---3-----3-3-|--3-----3-3-----|5-5-5-5-----8-8-|8-8-----8888\---|


   1 & 2 & 3 & 4 &  1 & 2 & 3 & 4 &
F#:----------------|----------------|
C#:----------------|----------------|
G#:----------------|----------------|
C#:0--0--0-0~------|----------------|
   ^--t--^



Bridge - "Scratch card glory..." - 1:50 (bass comes in at 2:05)
   1 & 2 & 3 & 4 &  1 & 2 & 3 & 4 &  1 & 2 & 3 & 4 &  1 & 2 & 3 & 4 &
F#:----------------|----------------|1515151515151515|17171717121412--|
C#:1212121212121212|1414141415151515|----------------|--------------15|
G#:----------------|----------------|----------------|----------------|
C#:----------------|----------------|----------------|----------------| play this three times
   ^these are 12's  ^14's and 15's   ^15's            ^17, 12, 14, 15

   1 & 2 & 3 & 4 &  1 & 2 & 3 & 4 &  1 & 2 & 3 & 4 &  1 & 2 & 3 & 4 &
F#:----------------|----------------|1515151515151515|1717171717171717|
C#:1212121212121212|1414141415151515|----------------|----------------|
G#:----------------|----------------|----------------|----------------|
C#:----------------|----------------|----------------|----------------| play this the fourth time
   ^these are 12's  ^14's and 15's   ^15's            ^17's



Chorus - "Sorry you're not..." - 2:34
   1 & 2 & 3 & 4 &  1 & 2 & 3 & 4 &  1 & 2 & 3 & 4 &  1 & 2 & 3 & 4 &
F#:----------------|----------------|----------------|------------------|
C#:----------------|----------------|----------------|------------------|
G#:----------------|---(5)-----(5)--|----------------|------------------|
C#:0--0--0-----0-0-|--0-----0-0-----|10101010----8-8-|8-8-----8888------|
   ^--t--^                           ^these are 10----------------------|s

   1 & 2 & 3 & 4 &  1 & 2 & 3 & 4 &  1 & 2 & 3 & 4 &  1 & 2 & 3 & 4 &
F#:----------------|----------------|----------------|----------------|
C#:-------(3)------|---(3)-----(3)--|----------------|----------------|
G#:----------------|----------------|----------------|----------------|
C#:3-3---3-----3-3-|--3-----3-3-----|5-5-5-5-----8-8-|8-8-----8888\---|

   1 & 2 & 3 & 4 &  1 & 2 & 3 & 4 &  1 & 2 & 3 & 4 &  1 & 2 & 3 & 4 &
F#:----------------|----------------|----------------|------------------|
C#:----------------|----------------|----------------|------------------|
G#:----------------|---(5)-----(5)--|----------------|------------------|
C#:0--0--0-----0-0-|--0-----0-0-----|10101010----8-8-|8-8-----8888------|
   ^--t--^                           ^10--------------------------------|s again

   1 & 2 & 3 & 4 &  1 & 2 & 3 & 4 &  1 & 2 & 3 & 4 &  1 & 2 & 3 & 4 &
F#:----------------|----------------|----------------|----------------|
C#:-------(3)------|---(3)-----(3)--|----------------|----------------|
G#:----------------|----------------|----------------|----------------|
C#:3-3---3-----3-3-|--3-----3-3-----|5-5-5-5-----8-8-|8-8-----8888\---|



Breakdown BUildup - 2:56
   1 & 2 & 3 & 4 &  1 & 2 & 3 & 4 &
F#:----------------|----------------|   |--------------------|
C#:----------------|-----------------------------------------|   |"what what what?"
G#:------ (5)------|---(5)-----(5)--|   |--------------------|
C#:0--0--0-----0-0-|--0-----0-0-----|x3 |--------------------|
   ^--t--^

   1 & 2 & 3 & 4 &  1 & 2 & 3 & 4 &    1 & 2 & 3 & 4 &  1 & 2 & 3 & 4 &
F#:----------------|----------------| |----------------|----------------|
C#:----------------|----------------| |----------------|----------------|
G#:------ (5)------|---(5)-----(5)--| |----------------|----------------|
C#:0--0--0-----0-0-|--0-----0-0-----| |000000000---0-0-|--0-----0-0-----|x3
   ^--t--^

   1 & 2 & 3 & 4 &  1 & 2 & 3 & 4 &
F#:----------------|----------------|
C#:----------------|----------------|
G#:----------------|----------------|
C#:0-0---0-0---0-0-|--0-0-----------|


Breakdown - 3:30
   1 & 2 & 3 & 4 & 5 & 6 &  1 & 2 & 3 & 4 & 5 & 6 &  1 & 2 & 3 & 4 & 5 & 6 &       1 &
F#:------------------------|------------------------|------------------------|    |----|
C#:------------------------|------------------------|------------------------|    |----|
G#:------------------------|------------------------|------------------------|    |----|
C#:0-0---0-0---0-0---0-0---|1-1---1-1---1-1---1-1---|3-3---3-3---3-3---3-3---|x4  |0-0-|
The guitar part to the breakdown is played in a 6/4 time signature while the drums play
a standard 4/4 time, which creates the cool effect.



Well that's Sorry You're Not A Winner by Enter Shikari for ya, in the right key and all
the right notes are in there. I spend some good time on this so if there is a mistake
lemme know and I'll fix it! :] I'm currently working on a Returning The Smile You Have 
Had From The Start by Emery tab, so watch out for that too.
-Ericman92
Suggest correction
comments
print report bad tab
3 comments total.
+1 reply
giacobe1 41 Feb 14, 2011 03:11 PM

Very good tab, nice work. Been trying to learn this for a while but their was no good tabs.
Cheers.

+1 reply
bassplayer6 10 Jun 29, 2011 06:36 PM

thanks for puttin this up, the rest are crap

0 reply
tomgodfrey 72 Jul 18, 2011 03:02 PM

you ****in nailed this tab! 5 stars all the way

guest
You may want to rate the tab now too:
select rating
Wanna post a correction for this tab? Suggest correction