Oops, an error
Loading. Please wait.

The Appeal And The Mindsweep Ii Tab

85 views 9 this week
no commentswrite comment
1 2 3 4 5
3 more votes to show rating
add to favorites
launch autoscroll
font size
0
reset
how to read this tab
guitar tuner
Autoscroll
slow
fast
+/-
esc
set tempo
stop
Help us to improve Ultimate-Guitar.com Take our survey!
×
Author
Tuning
C G C F A D
[Intro]

e|--------------------------------------------------------------------------------|
B|-10b----10b----------10b----10b----10b------10b----10b----------10b---10b-------|
G|-12b----12b----------12b----12b----12b------12b----12b----------12b---12b-------|
D|-----00-----00-----------00-----00-----0033-----00-----00----------00-----0075--| 
A|-----00-----00-----------00-----00-----0033-----00-----00----------00-----0075--|
E|-----00-----00-3-5-6-----00-----00-----0033-----00-----00-3-5-6----00-----0075--|

e|--------------------------------------------------------------------------------|
B|-10b----10b----------10b----10b----10b------10b----10b----------10b---10b-------|
G|-12b----12b----------12b----12b----12b------12b----12b----------12b---12b-------|
D|-----00-----00-----------00-----00-----0033-----00-----00----------00-----------|
A|-----00-----00-----------00-----00-----0033-----00-----00----------00-----------|
E|-----00-----00-3-5-6-----00-----00-----0033-----00-----00-3-5-6----00-----------|

[Verse p1]

e|--------------------------------------------------------------------------------|
B|-10b----10b----------10b----10b----10b------10b----10b----------10b---10b-------|
G|-12b----12b----------12b----12b----12b------12b----12b----------12b---12b-------|
D|-----00-----00-----------00-----00-----0033-----00-----00----------00-----0075--| (repeat)
A|-----00-----00-----------00-----00-----0033-----00-----00----------00-----0075--|
E|-----00-----00-3-5-6-----00-----00-----0033-----00-----00-3-5-6----00-----0075--|


[Verse p2) (repeat till end0
e|---------------------------------------------------------------------------|
B|---------------------------------------------------------------------------|
G|---------------------------------------------------------------------------|
D|--8-6868-8-8--8-10-11-10-11-10-11-11-13------------------------------------|
A|--8-6868-8-8--8-10-11-10-11-10-11-11-13------------------------------------|
E|--8-6868-8-8--8-10-11-10-11-10-11-11-13-13-15-13-11-13-11-8-6--------------|




************************************


| b   Bend


************************************
Suggest correction
Give kudos to tab author, rate the tab!
1 2 3 4 5
comments
print report bad tab
guest
You may want to rate the tab now too:
select rating
Wanna post a correction for this tab? Suggest correction