Oops, an error
Loading. Please wait.

Thumper Bass Tab

version 1
version 1

Whole song

Interactive

2,037 views 1 this week
no commentswrite comment
1 2 3 4 5
2 more votes to show rating
add to favorites
launch autoscroll
font size
0
reset
guitar tuner
Autoscroll
slow
fast
+/-
esc
set tempo
stop
Help us to improve Ultimate-Guitar.com Take our survey!
×
Author
Difficulty
Tuning
intermediate
C G C F A D
TUNING: drop C (C-G-C-F)

Awesome song by shikari again :D
not 100% sure on this but sounds just about right when played :)
enjoy :)

VERSE
G|--------------------------------------------------|
C|--------------------------------------------------|
F|------------------------1-0-----------------------|
C|-1-1-1--1-4-3--1-1-1--1------6-6-6-6-2--5-5-5-5-0-|

PRE-CHORUS (we're sick of the same old stories...)
G|--------------------------------------------------|
C|--------------------------------------------------|
F|--------------------------------------------------|
C|-6-6-6-6-9-8--6-6-6-6-5-6--9-9-9-9-11-12-11-11-11-|
                                    (11's and 12's not 1's and 2's)

CHORUS (We will, we will never be sane..)
G|----------------------------|
C|----------------------------|
F|----------------------------|
C|-6-6-6-6789874-9-9-9-111111-|
                        (again, 11's not 1's)

BRIDGE (Optional)
G|------------------|
C|------------------|
F|------------------|
C|-6-----8-9-----11-|


ORDER
(0:16) VERSE x3
(0:32) PRE-CHORUS x4
(0:55) CHORUS x4
BREAK then
(1:28) BRIDGE x4
(1:49) PRE-CHORUS x8
(2:34) CHORUS x4
(2:56) PRE-CHORUS x4
(3:17) VERSE x4
Suggest correction
Give kudos to tab author, rate the tab!
1 2 3 4 5
comments
print report bad tab
guest
You may want to rate the tab now too:
select rating
Wanna post a correction for this tab? Suggest correction