Oops, an error
Loading. Please wait.

Warm Smiles Do Not Make You Welcome Here tab

version 1
version 1

Whole song

Interactive

15,194 views 21 this week
7 commentsread comments
1 2 3 4 5
x 10
add to favorites
×
Save as Personal and add changes to this tab that will be seen only by you. Learn more ›
×
You can save this tab as Personal to edit and correct it or add notes. All changes will be seen only by you. Learn more »
launch autoscroll
font size
0
reset
how to read this tab
guitar tuner
edit
Autoscroll
slow
fast
+/-
esc
set tempo
stop
Warm Smiles Do Not Make You Welcome Here
A Flash Flood Of Colour (2012)
Enter Shikari

DROP C TUNING
Not a lot of guitar in this song, but very fun to play. Message me if you have any 
questions. Enjoy (:

Intro/Verse:
|--------------------------------------|
|-10--10/11-11-11-11-11-11-11-11\10-10-|
|--x---x-----x--x--x--x--x--x--x-----x-|
|--7---7/-8--8--8--8--8--8--8--8\-7--7-|
|--------------------------------------|
|--------------------------------------|

|-----------------------------------------------|
|-10--10/8-8-8-8-8-8-8-8-13-10--10-10--10-10-10-|
|--x---x---x-x-x-x-x-x-x-x---x---x--x---x--x--x-|
|--7---7/5-5-5-5-5-5-5-5-10--7---7--7---7--7--7-|
|-----------------------------------------------|
|-----------------------------------------------|

"Lightning strikes! ...A flash flood of colour"
|-20-20-20-20-20-20-20-19-19-19-19-19-19-19-19-17-17-17-17-17-17-17-17-|
|----------------------------------------------------------------------|
|----------------------------------------------------------------------|
|----------------------------------------------------------------------|
|----------------------------------------------------------------------|
|----------------------------------------------------------------------|

Awesome riff:
|--------------------------------------------------------------|
|-------------------------------------------------------13\10~-|
|---------------------------------7\5---10\9----10/12----x-----|
|----3-----------0-2p0-3p2-5p2-------------------x------10\-7~-|
|-33-3-3----3------------------00-----0------0---8/10-0--------|
|-33-3-3-3h5-5~----------------00-----0------0--------0--------|
  ..   .                       ..     .      .        .

|------------------------------------------------------|
|------------------------------------------------------|
|---------------------------------7\5---10\9-----------|
|----3-----------0-2p0-3p2-5p2-------------------------|
|-33-3-3----3------------------00-----0------0-0000000-|
|-33-3-3-3h5-5~----------------00-----0------0-0000000-|
  ..   .                       ..     .      . .......

Don't forget to rate and comment!

            
            
Suggest correction
Creating personal tab
Creating personal tab
You can edit any tab online and save it as your Personal.

You can edit, replace or remove any tab part or add personal notes – all changes will be seen only by you.

Personal tabs can be accessed anytime from any device, even offline.
Learn more »
comments
print report bad tab
7 comments total. Showing first comments.
+3 reply
ross123 148 Feb 07, 2012 07:20 AM

sounds about right, been waiting for someone to put the right version of THAT riff haha

0 reply
Sam Rulez D00d 938 Feb 07, 2012 12:01 PM

haha thanks man!

+1 reply
Sam Rulez D00d 938 Mar 08, 2012 11:07 AM

i found a mistake, sorry guys! the end riff should say 3p2 and 5p2, not 3p0 and 5p0. just noticed it lol

guest
You may want to rate the tab now too:
select rating
Wanna post a correction for this tab? Suggest correction