Oops, an error
Loading. Please wait.

When A Jealous Man Finds A Gun Bass Tab

version 1
version 1

Whole song

Interactive

1,512 views 1 this week
no commentswrite comment
1 2 3 4 5
please rate
add to favorites
launch autoscroll
font size
0
reset
guitar tuner
Autoscroll
slow
fast
+/-
esc
set tempo
stop
Help us to improve Ultimate-Guitar.com Take our survey!
×
Difficulty
novice
Enter shikari
when a jealous man finds a gun
drop D


(guitar Intro)

G|---------------------------------------------------|
D|---------7-------------7-----------7-----------7---|
A|-5-5---5-------5-5---5------------------5-5--5-----|
D|----------------------------7-7--7-----------------|

G|---------------------------------------------------|
D|---------7-------------7-----------7---------------|
A|-5-5---5-------5-5---5-----------------------------|
D|----------------------------7-7--7-----------------|

G|---------------------------------------------------|
D|---------7-------------7-----------7-----------7---|
A|-5-5---5-------5-5---5------------------5-5--5-----|
D|----------------------------7-7--7-----------------|

G|---------------------------------------------------|
D|---------7-------------7-----------7-----------7---|
A|-5-5---5-------5-5---5------------------5-5--5-----|
D|----------------------------7-7--7-----------------|

VERSE:
G||------------------|-------------------||
D||o-------4---------|------------------o||
A||o--4h5----5-4-5-0-|-4-5-0-4-5-0-4-5--o||
D||------------------|-------------------||

CHORUS:
G||--------------------------|------------------------||
D||o-------------------------|-----------------------o||
A||o-5-5---5-5---2-2---2-2---|-----------------------o||
D||--------------------------|-5-5---5-5---7-7---7-7--||





Little bass bit here.

G|-----------------|
D|-------4---------|
A|-4h5-0---5-4h5---|
D|-----------------|


G||------------------------------------------------------------------||
D||o-------4---------------5---------------5---------------4-5-4----o||
A||o--4h5----5-4h5---5-4h5---5-4h5---5-4h5---5-4h5---5-4h5-------5--o||
D||------------------------------------------------------------------||

(acoustic bit - use staccatoed notes)
G||---------------------------------------------------------------------||
D||o-------------------------------------------------------------------o||
A||o--5-5-5-5-5-5-5-5-0-0-0-0-0-0-0-0-----------------0-0-0-0-0-0-0-0--o||
E||-----------------------------------5-5-5-5-5-5-5-5-------------------||

(heavier bit)
G||---------------------------------------------------------------------||
D||o-------------------------------------------------------------------o||
A||o--5-5-5-5-5-5-5-5-2-2-2-2-2-2-2-2-----------------0-0-0-0-0-0-0-0--o||
E||-----------------------------------5-5-5-5-5-5-5-5-------------------||

G|-------------------------------|
D|-------------------------------|
A|-------------------------------|
E|-0-0-0-0-0-0-0-0-0-0-0-0-0-----|


G||------------------|-----------------||
D||o-----------------|----------------o||
A||o-----------------|-----6--6--6----o||
D||--0-0-1h0-0-1h0-0-|-0-0-------------||

G|----------------|---------------------------|-----------------|---------------------------|
D|----------------|---------------------------|-----------------|---------------------------|
A|----------------|------------------6-6-6----|-----------------|------------------6-6-6----|
D|--0-0--1h0-0-0--|-0-0-----1h0-0-0-----------|-0-0--1---0-0----|-0-0-----1h0-0-0-----------|

G|------||
D|------||
A|------||
E|-0-0--||

www.myspace.com/jakefell add me =]
Suggest correction
What's this?
You can suggest a correction to this tab. Community and Mods will review your correction and vote to approve or reject it.
comments
We did not receive enough feedback on this tab! Please rate:
print report bad tab
1 2 3 4 5
guest
You may want to rate the tab now too:
select rating
Please do not post tabs as comments. Select "correction" instead!