Oops, an error
Loading. Please wait.

When A Jealous Man Finds A Gun bass

version 3
version 3

Whole song

Interactive

37 views 1 this week
no commentswrite comment
1 2 3 4 5
3 more votes to show rating
add to favorites
×
Save as Personal and add changes to this tab that will be seen only by you. Learn more ›
×
You can save this tab as Personal to edit and correct it or add notes. All changes will be seen only by you. Learn more »
launch autoscroll
font size
0
reset
guitar tuner
edit
Autoscroll
slow
fast
+/-
esc
set tempo
stop
Enter Shikari
                                  When A Jealous Man Finds A Gun
                                           Drop D Tuning
                                   By Sonic4145 and Bassplayer7337

   *UPDATE* You can also play this on guitar by just using the EADG strings. but drop it down to drop D


(guitar Intro)

G|--------------------------------------------------------|
D|---------7-------------7-----------5--------------------|
A|-5-5---5-------5-5---5---------------------------7------|
D|----------------------------7-7--7------5-5--5----------|

G|--------------------------------------------------------|
D|---------7-------------7-----------5--------------------|
A|-5-5---5-------5-5---5---------------------------7------|
D|----------------------------7-7--7------5-5--5----------|

G|--------------------------------------------------------|
D|---------7-------------7-----------5--------------------|
A|-5-5---5-------5-5---5---------------------------7------|
D|----------------------------7-7--7------5-5--5----------|

G|--------------------------------------------------------|
D|---------7-------------7-----------5--------------------|
A|-5-5---5-------5-5---5---------------------------7------|
D|----------------------------7-7--7------5-5--5----------|

VERSE:
G||------------------|-------------------||
D||o-------4---------|------------------o||
A||o--4h5----5-4-5-0-|-4-5-0-4-5-0-4-5--o||
D||------------------|-------------------||

CHORUS:
G||--------------------------|------------------------||
D||o-------------------------|-----------------------o||
A||o-5-5---5-5---2-2---2-2---|-----------------------o||
D||--------------------------|-5-5---5-5---7-7---7-7--||

G|--------------------------------------------------------|
D|---------7-------------7-----------5--------------------|
A|-5-5---5-------5-5---5---------------------------7------|
D|----------------------------7-7--7------5-5--5----------|

G|--------------------------------------------------------|
D|---------7-------------7-----------5--------------------|
A|-5-5---5-------5-5---5---------------------------7------|
D|----------------------------7-7--7------5-5--5----------|

G|--------------------------------------------------------|
D|---------7-------------7-----------5--------------------|
A|-5-5---5-------5-5---5---------------------------7------|
D|----------------------------7-7--7------5-5--5----------|

G|--------------------------------------------------------|
D|---------7-------------7-----------5--------------------|
A|-5-5---5-------5-5---5---------------------------7------|
D|----------------------------7-7--7------5-5--5----------|




G|-----------------|
D|-------4---------|
A|-4h5-0---5-4h5---|
D|-----------------|


G||------------------------------------------------------------------||
D||o-------4---------------5---------------5---------------4-5-4----o||
A||o--4h5----5-4h5---5-4h5---5-4h5---5-4h5---5-4h5---5-4h5-------5--o||
D||------------------------------------------------------------------||

(acoustic bit - use staccatoed notes)
G||---------------------------------------------------------------------||
D||o--------------------------------------------------------------------||
A||o--5-5-5-5-5-5-5-5-2-2-2-2-2-2-2-2-----------------------------------||X2
E||-----------------------------------5-5-5-5-5-5-5-5-7-7-7-7-7-7-7-7---||

(heavier bit)
G||---------------------------------------------------------------------||
D||o--------------------------------------------------------------------||
A||o--5-5-5-5-5-5-5-5-2-2-2-2-2-2-2-2-----------------------------------||X2
E||-----------------------------------5-5-5-5-5-5-5-5-7-7-7-7-7-7-7-7---||

G|-------------------------------|
D|-------------------------------|
A|-------------------------------|
E|-0-0-0-0-0-0-0-0-0-0-0-0-0-----|


G||------------------|-----------------||
D||o-----------------|----------------o||
A||o-----------------|-----6--6--6----o||
D||--0-0-1h0-0-1h0-0-|-0-0-------------||

G|----------------|---------------------------|-----------------|---------------------------|
D|----------------|---------------------------|-----------------|---------------------------|
A|----------------|------------------6-6-6----|-----------------|------------------6-6-6----|
D|--0-0--1h0-0-0--|-0-0-----1h0-0-0-----------|-0-0--1---0-0----|-0-0-----1h0-0-0-----------|

G|------||
D|------||
A|------||
E|-0-0--||
Suggest correction
Creating personal tab
Creating personal tab
You can edit any tab online and save it as your Personal.

You can edit, replace or remove any tab part or add personal notes – all changes will be seen only by you.

Personal tabs can be accessed anytime from any device, even offline.
Learn more »
Give kudos to tab author, rate the tab!
1 2 3 4 5
comments
print report bad tab
guest
You may want to rate the tab now too:
select rating
Wanna post a correction for this tab? Suggest correction