Oops, an error
Loading. Please wait.

Zzzonked Bass Tab

version 1
version 1

Whole song

Interactive

3,219 views 1 this week
2 commentsread comments
1 2 3 4 5
worth learning
x 4
add to favorites
launch autoscroll
font size
0
reset
guitar tuner
Autoscroll
slow
fast
+/-
esc
set tempo
stop
Help us to improve Ultimate-Guitar.com Take our survey!
×
Author
Tuning
D A D G B E
Band: Enter Shikari
Album: Common Dreads
Song: Zzzonked
Tuning: Dropped DADG
Notes: If possible use overdrive/distortion/whatever you think sounds right

Part A
|-----------------|-----------------|-----------------|-----------------|
|-----------------|----2------------|-----------------|---------2--1----|
|-----------------|-------------1---|-----------------|-----------------|
|-0-------------1-|-2-------1-2-----|-0-------1-1-1-1-|-0-1-1-1---------|

|-----------------|-----------------|-----------------|-----------------|
|-----------------|----2------------|-----------------|-----------------|
|-----------------|-------------1---|-----------------|-----------------|
|-0-------------1-|-2-------1-2-----|-0---------------|---7-6-5-4-3-2-1-|

|-----------------|-----------------|-----------------|-----------------|
|-----------------|---2-------------|-----------------|-----------------|
|-----------------|-----------1-----|-----------------|-----------------|
|-0-------------1-|-2----1-2--------|-0---------------|-----------------|

|-----------------|-----------------|-----------------|-----------------|
|-----------------|---1-------------|-----------------|-----------------|
|-----------1-----|----------1------|-----------------|----------4-4-4-4|
|--1--2--1------1-|-2----1-2--------|-0-------1-1-1-1-|-1--2--1---------|

Repeat Part A again

Part B
|-----------------|-----------------|-----------------|-----------------|
|-----------------|---2-------------|-----------------|-----------------|
|-----------------|-------------1---|-----------------|-----------------|
|-0-------------1-|-2-------1-2-----|-0---------------|-----------------|

|-----------------|-----------------|-----------------|-----------------|
|-----------------|---2-------------|-----------------|----------2--1---|
|-----------------|-------------1---|-----------------|-----------------|
|-0-------------1-|-2-------1-2-----|-0-------1-1-1-1-|-0--1-1-1--------|

|-----------------|-----------------|-----------------|-----------------|
|-----------------|---2-------------|-----------------|-----------------|
|-----------------|-------------1---|-----------------|-----------------|
|-0-------------1-|-2-------1-2-----|-0---------------|-----------------|

|-----------------|-----------------|-----------------|-----------------|
|-----------------|---2-------------|-----------------|-----------------|
|-----------------|-------------1---|-----------------|---------4-4-4-4-|
|-0-------------1-|-2-------1-2-----|-0--------1-1-1-1|-1--2--1---------|

|-----------------|-----------------|-----------------|-----------------|
|-----------------|---2-------------|-----------------|-----------------|
|-----------------|-------------1---|-----------------|-----------------|
|-0-------------1-|-2-------1-2-----|-0---------------|-----------------|

|-----------------|-----------------|-----------------|-----------------|
|-----------------|---2-------------|-----------------|----------2--1---|
|-----------------|-------------1---|-----------------|-----------------|
|-0-------------1-|-2-------1-2-----|-0-------1-1-1-1-|-0--1-1-1--------|

|-----------------|-----------------|-----------------|-----------------|
|-----------------|---2-------------|-----------------|-----------------|
|-----------------|-------------1---|-----------------|-----------------|
|-0-------------1-|-2-------1-2-----|-0---------------|-----------------|

|-----------------|-----------------|-----------------|-----------------|
|-----------------|---2-------------|-----------------|-----------------|
|-----------------|-------------1---|-----------------|---------4-4-4-4-|
|-0-------------1-|-2-------1-2-----|-0-------1-1-1-1-|-1--2--1---------|

|-----------------|-----------------|-----------------|-----------------|
|-----------------|---2-------------|-----------------|-----------------|
|-----------------|-------------1---|--------1--------|---------1-------|
|-0-------------1-|-2-------1-2-----|----1-2---1---1--|-----1-2---1-----|

|-----------------|
|-----------------|
|---------1-------|
|-----1-2---1-----|

Part C
|-----------------|-----------------|-----------------|-----------------|
|-----------------|-----------------|-----------------|-----------------|
|--4-5-7-8--5--5--|--5--5---5-7--4--|--4-5-7-8--5--5--|--5----7--4---4--|
|-----------------|-----------------|-----------------|-----------------|

|-----------------|-----------------|-----------------|-----------------|
|-----------------|-----------------|-----------------|-----------------|
|--4-5-7-8--5--5--|--5----7--4---4--|--5--5--55-5-5-5-|--5--8--88-8-8-8-|
|-----------------|-----------------|-----------------|-----------------|

Repeat Part C 7 more times, BUT miss out last bar on first REPEAT and third REPEAT (so 
out 2nd and 4th time you play the riff)
Suggest correction
comments
print report bad tab
2 comments total.
+1 reply
Sidtheboon 149 wrote on October 26 2009, 02:27 pm

Instant fail because its in the wrong tuning please redo it in Drop C

-1 reply
Banjocal 516 wrote on December 13 2009, 12:59 pm

first of all, Enter shikari is in Drop C#, and second of all, it needs to be an octave higher.

guest
You may want to rate the tab now too:
select rating
Please do not post tabs as comments. Select "correction" instead!