Oops, an error
Loading. Please wait.

Zzzonked Bass Tab

version 2
version 2

Whole song

Interactive

5,506 views 3 this week
no commentswrite comment
1 2 3 4 5
accurate
x 7
add to favorites
launch autoscroll
font size
0
reset
guitar tuner
Tab Pro tools
  • play this tab
  • loop segment
  • change instrument
  • show fretboard
  • metronome
×
Best way to learn
"Zzzonked"
Autoscroll
slow
fast
+/-
esc
set tempo
stop
Contributor
Difficulty
Tuning
intermediate
C G C F A D
-----------------------------------------------------------------------------
			     ENTER SHIKARI - Zzzonked
-----------------------------------------------------------------------------

Tabbed By: Cru (2010-01-11)
e-mail: crusheer@gmail.com
Tuning: CGCF

Artist: Enter Shikari
Song: Zzzonked
Album: Common Dreads
Year: 2009
Genre: Experimental Post-Hardcore

Noone has tabbed this right, so I tried to. It's kinda hard song to transcribe though. 
Spent last few day on this and finally I can say with a clear heart IT DOES FIT! 
I'd say it's something like 90% correct. Any suggestions are welcome. 
Enjoy this wonderful song.


  MAAATE!
F|-------------------------------------------------------------|
C|-------------------------------------------------------------|
G|--------2---4--------------43---------2---4------------------|
C|333---34--34--333---333-33---4333---34--34--333---3-2-4-3-2-1|

F|-------------------------------------------------------------|
C|---------------------------------------------------------1111|
G|--------2---4--------------------3---2---4-------------------|
C|333---34--34--333------------3341--34--34--333-------3341----|

F|-------------------------------------------------------------|
C|-------------------------------------------------------------|
G|--------2---4--------------43---------2---4------------------|
C|333---34--34--333---333-33---4333---34--34--333---3-2-4-3-2-1|

F|-------------------------------------------------------------|
C|---------------------------------------------------------1111|
G|--------2---4--------------------3---2---4-------------------|
C|333---34--34--333------------3341--34--34--333-------3341----|


  Roll up...
F|-------------------------------------------------------------|
C|-------------------------------------------------------------|
G|--------2---4-------------------------2---4---------------43-|
C|3-----34--34--3--------------3------34--34--3------333-33---4|

F|-------------------------------------------------------------|
C|---------------------------------------------------------1111|
G|--------2---4-------------------------2---4------------------|
C|3-----34--34--3--------------3------34--34--3--------3341----|


  Instead of staring...
F|-------------------------------------------------------------|
C|-------------------------------------------------------------|
G|--------2---4-------------------------2---4---------------43-|
C|3-----34--34--3--------------3------34--34--3------333-33---4|

F|-------------------------------------------------------------|
C|---------------------------------------------------------1111|
G|--------2---4-------------------------2---4------------------|
C|3-----34--34--3--------------3------34--34--3--------3341----|

  MAAATE!
F|-----------------------------------|
C|-----------------------------------|
G|--------2---4------23-3---23-3-----|
C|333---34--34-----34-----34-----34--|


  I PROTEEEEST!
F|---------------------------------------------------------------|
C|---------------------------------------------------------------|
G|---------------------------------------------------------------|
C|0134-1-1-1-1-30-0134-1-1-1-30-0-0134-1-1-1-1-30-1-11111-4-44444|


F|---------------------------------------------------------------|
C|---------------------------------------------------------------|
G|---------------------------------------------------------------|
C|0134-1-1-1-1-30-0134-1-1-1-30-0-0134-1-1-1-1-30-1-11111-4------|


  The herd is rowdy...
F|---------------------------------------------------------------|
C|---------------------------------------------------------------|
G|---------------------------------------------------------------|
C|0134-1-1-1-1-30-0134-1-1-1-30-0-0134-1-1-1-1-30-1-11111-4-44444|
            (deaden the notes!)

F|---------------------------------------------------------------|
C|---------------------------------------------------------------|
G|---------------------------------------------------------------|
C|0134-1-1-1-1-30-0134-1-1-1-30-0-0134-1-1-1-1-30-1-11111-4------|
            (deaden the notes!)

F|---------------------------------------------------------------|
C|---------------------------------------------------------------|
G|---------------------------------------------------------------|
C|0134-1-1-1-1-30-0134-1-1-1-30-0-0134-1-1-1-1-30-1-11111-4-44444|
            (deaden the notes!)

F|---------------------------------------------------------------|
C|---------------------------------------------------------------|
G|---------------------------------------------------------------|
C|0134-1-1-1-1-30-0134-1-1-1-30-0-0134-1-1-1-1-30-1-11111-4-44444|
            (deaden the notes!)

  (guitars joins)
F|---------------------------------------------------------------------|
C|---------------------------------------------------------------------|
G|---------------------------------------------------------------------|
C|0134-1-1-1-1-30-0134-1-1-1-30-0-0134-1-1-1-1-30-1-1-11-111-4-44-44444|

F|---------------------------------------------------------------------|
C|---------------------------------------------------------------------|
G|---------------------------------------------------------------------|
C|0134-1-1-1-1-30-0134-1-1-1-30-0-0134-1-1-1-1-30-1-1-11-111-4-44-4444*|

Hope this helps.
comments
print report bad tab
I want to post or [tab]
guest
You may want to rate the tab now too:
select rating
Please do not post tabs as comments. Select "correction" instead!