Oops, an error
Loading. Please wait.

Under The Holocaust tab

243 views 1 this week
no commentswrite comment
1 2 3 4 5
3 more votes to show rating
add to favorites
×
Save as Personal and add changes to this tab that will be seen only by you. Learn more ›
×
You can save this tab as Personal to edit and correct it or add notes. All changes will be seen only by you. Learn more »
launch autoscroll
font size
0
reset
how to read this tab
guitar tuner
edit
Autoscroll
slow
fast
+/-
esc
set tempo
stop
Band- Enthroned
Song- Under The Holocaust

Normal tuning (EADGBe)

Riff 1 w/tremolo picking. Play 8 times
e|----------------------------------------------------|
B|----------------------------------------------------|
G|-2--3-2-0-2-0---------------------------------------|
D|--------------3-5-3-2-3-2-0-2-0--3--4-3-2-3-4-3-2-3-|
A|----------------------------------------------------|
E|----------------------------------------------------|
"Reborn through the breeze in a snowstorm
in front of thirteen black brillants candles
reflecting under my eyes, and letting reappear
the Medieval visions of my ancient empire."

Riff 2, tremolo picking during this typical Enthroned riff. Use your
pinkie to fret the 6's. It looks difficult but it actually isn't.
Play 2 times
   1 2 3 4 1 2 3 4 1 2 3 4 1 2 3 4 1 2 3 4 1 2 3 4 1 2 3 4 1  2 3 4
e|------------------------------------------------------------------
B|------------------------------------------------------------------
G|------------------------------------------------------------------
D|-4---2-4-5-3565354---2-4-5-3565354---2-4-5-3565354---2-4-5-356535-
A|-2---2-2-3-3333332---2-2-3-3333332---2-2-3-3333332---2-2-3-333333-
E|------------------------------------------------------------------

  ------------------------------------------------------------------|
  ------------------------------------------------------------------|
  -4---2-4-5-3565354---2-4-5-3565354---2-4-5-3565354---2-4-5-356535-|
  -2---2-2-3-3333332---2-2-3-3333332---2-2-3-3333332---2-2-3-333333-|
  ------------------------------------------------------------------|
  ------------------------------------------------------------------|

"Prince Lucifer, powerful you buried my corpse
and keep my spirit, to challenge the good in the
name of evil to declare an endless war,
with the torment of the infernal legions"

Then play riff 1, 4 times...
"I'm the son of the moon, emperor of the war,
I'm the one who unleash the hate,
I'm the denial of all benevolence
I prepare my holocaust
I shall kill without pity..."
...and end with a low E5 power chord

Riff 3, clean guitar. Make sure the rootnote of the chords sound through
during the whole riff. Play 8 times.
e|----------------------------------------------------------------|
B|----------------------------------------------------------------|
G|----------------------------------------------------------------|
D|---7-7-77578-7----7-7-77578-7-----5-5-55356-5----5-5-55356-5----|
A|-5--------------5-------------5\3--------------3-------------3/-|
E|----------------------------------------------------------------|

The 3rd time guitar 2 (dist.) comes in and plays:
e|----------------------------------------------------------------|
B|----------------------------------------------------------------|
G|----------------------------------------------------------------|
D|-7--------------7---------------5--------------5----------------|
A|-5--------------5---------------3--------------3----------------|
E|----------------------------------------------------------------|
"I raise the inverted cross, in the nightside eclipse...
His eyes shall watch me in battle.
Under the storming holocaustsky,
thy kingdom of heaven will be destroyed forevermore,
under the throne of the horned king,
under the sing of the horned one..."

Riff 4, tremolo picking, play 8 times.
   1 2 3 4 1 2 3 4 1 2 3 4 1 2 3 4 
e|---------------------------------|
B|---------------------------------|
G|-4------67---676-------------7-6-|
D|-2------45---45464------67---5-4-|
A|----------------42------45-------|
E|---------------------------------|
"The whole universe, will recognize
the supreme power of Satan, who will retake
his trhone for eternity and will reign forever.
Beyond the snowclad hills, and the icy mountains
a vast field of crucified, and impaled is stretching."

"They're perishing in the blackness of darkness
and souless of their soul
for centuries lost in Lucifer's kingdom.
And endlessly the bloody rivers flows!
And the maleficiant strenghts delivered from
their abyss are raging."

Riff 5
e|------------------------------|
B|------------------------------|
G|---------------5------5---5/7-|
D|-2------3------5------5---5/7-|
A|-2------3------3------3---3/5-|
E|-0-000-01-000-0--000-0--0-----|
     ... .  ... .  ... .  .
"Again the empire of evil, will shine
and my domain of terror, will keep his powerfull majesty,
under the glittering brillance of the moon,
and under the sign of the great iron hammer,
sign of Thor."
Suggest correction
Creating personal tab
Creating personal tab
You can edit any tab online and save it as your Personal.

You can edit, replace or remove any tab part or add personal notes – all changes will be seen only by you.

Personal tabs can be accessed anytime from any device, even offline.
Learn more »
Give kudos to tab author, rate the tab!
1 2 3 4 5
comments
print report bad tab
guest
You may want to rate the tab now too:
select rating
Wanna post a correction for this tab? Suggest correction