Oops, an error
Loading. Please wait.

Aghosh Tab

version 1
version 1

Whole song

Interactive

806 views 3 this week
no commentswrite comment
1 2 3 4 5
please rate
add to favorites
launch autoscroll
font size
0
reset
how to read this tab
guitar tuner
Tab Pro tools
  • play this tab
  • loop segment
  • change instrument
  • show fretboard
  • metronome
×
Best way to learn
"Aghosh"
Autoscroll
slow
fast
+/-
esc
set tempo
stop
Contributor
AGHOSH BY ENTITY PARADIGM
TABBED BY: AHMED NADEEM

[I DID THIS TAB IN A HURRY SO ITS NOT GREAT)
Csus4 (x35533)
Asus4 (x02200)  E5    (022xxx) 
A     (x02220)  A5    (577xxx)
F     (133211)  F5    (133xxx)
C     (x32010)  C5    (x355xx)
G     (355433)  G5    (355xxx)

ORDER:
INTRO
VERSE
PRECHORUS
CHORUS
VERSE
PRECHORUS
CHORUS
SOLO
POST SOLO XULFI PART
PRECHORUS
FINAL CHORUS

INTRO/VERSE
[-----------------------------3----------------0-----------3------------]
[---------0-------------3-------3--------1-------1-------3---3----------]
[-----------2---------0---0-------0----0---0-------0---5-------5--------]
[---2---2-----2-----2-------2--------3-------3--------------------------]
[-0---0-----------3-------------------------------------------------2-0-]
[---------------------------------------------------------------0-3-----]

PRECHORUS
LEAD
[----------------------------------------------------------------]
[---8-----------------------------------8------------------------]
[-9---9-7-9-7-9-7-------------7----------------------7-----------]
[-----------------10-9-10-9-10--10-9-10---10-9-7-5-7-------------]
[----------------------------------------------------------------]
[----------------------------------------------------------------]
RHYTHM
[----------------------------------------------------------------]
[----------------------------------------------------------------]
[----------------------------------------------------------------]
[-3--------------------------5-----------------------------------]
[-3--------------------------5-----------------------------------]
[-1--------------------------3-----------------------------------]
REPEAT TWICE

LEAD
[---------8----------------------------8-------------------------]
[-10-8-10---10-8-10-8-------8--10-8-10--10-8-10-8-------8--------]
[---------------------9-7-9-----------------------9-7-9----------]
[----------------------------------------------------------------]
[----------------------------------------------------------------]
[----------------------------------------------------------------]
RHYTHM
[----------------------------------------------------------------]
[----------------------------------------------------------------]
[----------------------------------------------------------------]
[-3----------------------------5---------------------------------]
[-3----------------------------5---------------------------------]
[-1----------------------------3---------------------------------]

LEAD
[-12----12----12----12-------------------------------------------]
[----12----12----12----12--8-8s9~~~~~----------------------------]
[----------------------------------------------------------------]
[----------------------------------------------------------------]
[----------------------------------------------------------------]
[----------------------------------------------------------------]
RHYTHM
[----------------------------------------------------------------]
[----------------------------------------------------------------]
[----------------------------------------------------------------]
[-2--------------------------------------------------------------]
[-2--------------------------------------------------------------]
[-0--------------------------------------------------------------]

CHORUS
C5 A5    G5        F5       G5
YEH   ZAMEEN, MERI MAAN THI WOH
C5    A5  G5       F5         E5
KHUDA KAH WAJOOD,  MABOOD THI WOH
C5 A5 G5            F5      G5
SAAYA THEE, ROSHNEE BHI THI WOH
A5              G5        F5         G5   
QADAM TALAY JAANAT, MERI AGHOSH THI WOH

SOLO
LEAD
[----------------------------------------------------------------]
[----------------------------------------------------------------]
[--------------------------------7-9-10-9-7-9-7------3s9--3s7----]
[-7-10-7-10-7-10-7h9-7-9-10-9-10----------------10-7-------------]
[----------------------------------------------------------------]
[----------------------------------------------------------------]

RHYTHM
[----------------------------------------------------------------]
[----------------------------------------------------------------]
[----------------------------------------------------------------]
[-7------------------10--------------5---------------3----5------]
[-7------------------10--------------5---------------3----5------]
[-5------------------8---------------3---------------1----3------]



LEAD
[----------------------------------------------------------------]
[------------------------------------10-8------------------------]
[--------------------------------7-9-----9-7-7-9-8-3s9--3s7-3s6--]
[-7-10-7-10-7-10-7h9-7-9-10-9-10---------------------------------]
[----------------------------------------------------------------]
[----------------------------------------------------------------]

RHYTHM
[----------------------------------------------------------------]
[----------------------------------------------------------------]
[----------------------------------------------------------------]
[-7------------------10--------------5-------------3----5---7----]
[-7------------------10--------------5-------------3----5---7----]
[-5------------------8---------------3-------------1----3---5----]


LEAD
[----------------------------------------------------------------]
[----------------------------------------------------------------]
[-6-7-9-9-7-5-9-5-9-5-7~~--5-7-5-4-2--0-2-4-5-4--2s6-------------]
[----------------------------------------------------------------]
[----------------------------------------------------------------]
[----------------------------------------------------------------]


RHYTHM
[----------------------------------------------------------------]
[----------------------------------------------------------------]
[----------------------------------------------------------------]
[-7-----------10-------5----3----------5---------7---------------]
[-7-----------10-------5----3----------5---------7---------------]
[-5-----------8--------3----1----------3---------5---------------]

LEAD
[----------------------------------------------------------------]
[-------------8--------------------------------------------------]
[-6-7-9-9-7-5---7-9-7-9-7-5---5-7-9-7-9-10-9-10-12-10-9-7-5~~~---]
[----------------------------------------------------------------]
[----------------------------------------------------------------]
[----------------------------------------------------------------]

RHYTHM
[----------------------------------------------------------------]
[----------------------------------------------------------------]
[---------------------------------------------------------5------]
[-7------------10----------5---3------5-------------------5------]
[-7------------10----------5---3------5-------------------3------]
[-5------------8-----------3---1------3--------------------------]

POST SOLO XULFI PART
BUILD UP

RHYTHM (PALM MUTED)
[----------------------------------]
[----------------------------------]
[-5-5-5-5-5-5-5-5-5-5-5-5-5-5-5-5--]
[-5-5-5-5-5-5-5-5-5-5-5-5-5-5-5-5--]
[-3-3-3-3-3-3-3-3-3-3-3-3-3-3-3-3--]
[----------------------------------]
F5          G5          A5
AANKH SAY TAPKA AB  YEH LAHOO, ZAKHAM BHARNAY LAGAY
F5       G5               A5 
SAR-BA-SAJOOD HOON USS KE HAZOOR, GUNAH DHALNAY LAGAY
A5 C5                      G5      F5            G5
DARGUZAR AAJ US MAAN NAY KIYA, FASLAY SIMATNAY LAGAY
A5   C5                     G5      F5           G5
WAHDAHOO, USS KE KOKH SAY HOON, AIK HI NABZ, AIK WAJOOD]]

THEN PRECHORUS SOLO 

THEN FINAL CHORUS


Csus4  Asus4 G        F        G 
YEH   ZAMEEN, MERI MAAN THI WOH
Csus4 Asus4 G        F          Em
KHUDA KAH WAJOOD,  MABOOD THI WOH
Csus4Asus4 G            F      G
SAA--YA    THEE, ROSHNEE BHI THI WOH
A              G        F         G   
QADAM TALAY JAANAT, MERI AGHOSH THI WOH

END ON Asus4

comments
We did not receive enough feedback on this tab! Please rate:
print report bad tab
1 2 3 4 5
I want to post or [tab]
guest
You may want to rate the tab now too:
select rating
Please do not post tabs as comments. Select "correction" instead!