Oops, an error
Loading. Please wait.

Aghosh Tab

version 2
version 2

Whole song

Interactive

619 views 1 this week
no commentswrite comment
1 2 3 4 5
1 last vote to show rating
add to favorites
launch autoscroll
font size
0
reset
how to read this tab
guitar tuner
Autoscroll
slow
fast
+/-
esc
set tempo
stop
Help us to improve Ultimate-Guitar.com Take our survey!
×
----------------------------------------------------------------------------
                         Entity Paradigm - Aghosh
----------------------------------------------------------------------------

Tabbed by: Bilal
Email: luminousgreen@yahoo.com


Intro

e--------0----------3---------0-----------------------|
B----0----0------3---3-----1---1-------1--------------|
G-----2----2----0-0---0---2-2---2-----0-0-------------|
D--2---2-------2---------3---3-------2----------------|
A-0-----------3---------------------3------------2--0-|
E-------------------------------------------0--3------|

Tutay huay un khawboun k   |
uzdehaktay suuraj taley    |------ play intro over this part
falak say ab tapkay na jo  |
umead k katray thay wo     |


talakh aansuon k           |
saylaab say jo             |------ play solo 2 over this part
hoo na sake num            |
tou rooti the wo           |

jis aasray k leay rooh     |
tarap te they jis ke       |------ play intro over this part AGAIN
jis shama ko jala na sake  |
wo andhayra tha mai        |

ye gunaha gaar haath       |
bheek ke chaha mai jo      |----- play solo 2 over this part AGAIN
barhay dar badar           |
us suu                     |


Main SOLO

e------------------------------------------------------------------|
B--------------------------------------10-9------------------------|
G--------------------------------7-9-------10-9---------7/9~-5/7~--|
D--7-10-7-10-7-10-9--7-9-10-9-10----------------10-9-10------------|
A------------------------------------------------------------------|
E------------------------------------------------------------------|

e------------------------------------------------------------------|
B-----------------------------------10-8-------5-------------------|
G--------------------------------7-9----9--5-7---8--9~--7~--6~-----|
D--7-10-7-10-7-10-9--7-9-10-9-10-----------------------------------|
A------------------------------------------------------------------|
E------------------------------------------------------------------|

e------------------------------------------------------------------|
B-------------------------------------------------5-5---8--5-5-----|
G--6-7-9-9-7-5-9-7-5/9\7--5-7-5-4-----4-5-4-6~-6-7---7-5-7--7-7-5--|
D--------------------------------7-5-7-----5-----------------------|
A------------------------------------------------------------------|
E------------------------------------------------------------------|

e--------------------------------|
B-----5----6-5--5--5--5----------|
G--7-5--7-5------7--7--7-5--7/5--|
D--------------------------------| play this a bit faster
A--------------------------------|
E--------------------------------|

Solo 2 (In the end before the acoustic part)


e--------------------------------------------------------|
B---8--------------------8----------8--------8-----------|
G--9--9-7-9-7-9-7-------------------------------------7--|
D----------------10-9-10--10-9-10-9---10-9-10---9-7-9----|
A--------------------------------------------------------|
E--------------------------------------------------------|


e--------------------------------------------------------|
B---8--------------------8----------8--------8-----------|
G--9--9-7-9-7-9-7-------------------------------------7--|
D----------------10-9-10--10-9-10-9---10-9-10---9-7-9----|
A--------------------------------------------------------|
E--------------------------------------------------------|

e---------8-----------------------------8-------------------|
B--10-8-10--10-8-10-8-------8----10-8-10--10-8-10-8-------8-|
G---------------------9-7-9-------------------------9-7-9---|
D-----------------------------------------------------------|
A-----------------------------------------------------------|
E-----------------------------------------------------------|

e--12--12--12--12--12-----------|
B---12--12--12--12--12----------|
G---------------------12-12\14--|
D-------------------------------|
A-------------------------------|
E-------------------------------|

Asus2: X02200
Asus4: X02230
    F: X03210
    A: X02220
   Am: X02210
    G: 320033
    E: 022100


Asus4  Asus2       Asus4     F
Ye hai zameen meri maan hai ye

Asus4    Asus2  Asus4     F
Khuda ka wajood mabud hai ye

A     Am        F        G
saaya hai roshi bhe hai ye

A           Asus4      Am         Asus2    E
Kadam taley janat meri aghosh hai ye


Hope you like it. I tried to be as accurate as i could. Send me your comments on my 
And please rate it.
Suggest correction
Give kudos to tab author, rate the tab!
1 2 3 4 5
comments
print report bad tab
guest
You may want to rate the tab now too:
select rating
Wanna post a correction for this tab? Suggest correction