Oops, an error
Loading. Please wait.

Fitrat Tab

version 1
version 1

Whole song

Interactive

277 views 1 this week
no commentswrite comment
1 2 3 4 5
please rate
add to favorites
launch autoscroll
font size
0
reset
how to read this tab
guitar tuner
Autoscroll
slow
fast
+/-
esc
set tempo
stop
Help us to improve Ultimate-Guitar.com Take our survey!
×
Author
FITRAT by Entity Paradigm
tabbed by: Ahmed Nadeeem
TUning DROPPED D

[thanks to Syed Atif Ali for the solo]

INTRO:
(at the back xulfi is doin some pick slides)
e{------------------------------------------------------------]
B{------------------------------------------------------------]
G{------------------------------------------------------------]
D{------------------------------------------------------------]
A{------------------------------------------------------------]
D{-9-9-7-9-9-7-0-0-0-0-0-7-9-9-7-9-9-7-0----------------------]


e{------------------------------------------------------------]
B{------------------------------------------------------------]
G{------------------------------------------------------------]
D{-9-9-7-9-9-7-0-0-0-0-0-7-9-9-7-9-9-7-0------0-0-------------]
A{-9-9-7-9-9-7-0-0-0-0-0-7-9-9-7-9-9-7-0------0-0-------------]
D{-9-9-7-9-9-7-0-0-0-0-0-7-9-9-7-9-9-7-0------0-0-------------]

VERSE (NOTHING)

PRECHORUS
  BOL KABHI......        USS KA HAQ.......
e{--------------------][--------------------------------]
B{--------------------][--------------------------------]
G{--------------------][--------------------------------]
D{-----9---------7----][---------9----------0-----------]
A{-----9---------7----][---------9----------0-----------]
D{-----9---------7----][---------9----------0-----------]

TWICE

CHORUS
   HOOOOOO-ooooooooo  INSAAN!!!!!
e{------------------------------------------------------------]
B{------------------------------------------------------------]
G{------------------------------------------------------------]
D{-6-66-6-6-5-55-5-5--7-7-9-9-9-9---7-9-0-9-------------------]
A{-6-66-6-6-5-55-5-5--7-7-9-9-9-9---7-9-0-9-------------------]
D{-6-66-6-6-5-55-5-5--7-7-9-9-9-9---7-9-0-9-------------------]

POST CHORUS
RHYTHM
e{------------------------------------------------------------]
B{------------------------------------------------------------]
G{------------------------------------------------------------]
D{--9-9-99-9---8-8-88-8----9-9-99-9---0-0-00-0----------------]
A{--9-9-99-9---8-8-88-8----9-9-99-9---0-0-00-0----------------]
D{--9-9-99-9---8-8-88-8----9-9-99-9---0-0-00-0----------------]
LEAD
e{------------------------------------------------------------]
B{--12---------11----------12---------15-----LET RING---------]
G{--14b16------13b15-------14b16------17b19-------------------]
D{------------------------------------------------------------]
A{------------------------------------------------------------]
D{------------------------------------------------------------]

VERSE AND CHORUS ARE THE SOME

BRIDGE
HOOOOOOOOOOOO
e{------------------------------------------------------------]
B{------------------------------------------------------------]
G{------------------------------------------------------------]
D{-2-22-2-2-2--7-77-7-7-7--8-88-8-8-8-10-1010-10-10-10--------]
A{-2-22-2-2-2--7-77-7-7-7--8-88-8-8-8-10-1010-10-10-10--------]
D{-2-22-2-2-2--7-77-7-7-7--8-88-8-8-8-10-1010-10-10-10--------]

SOLO (REFERED TO FITRAT SOLO TAB

RHYTHM DURING FLANGE
e{--0------0------4------0------------------------------------]
B{--0------2------5------2------------------------------------]
G{--1------2------6------2------------------------------------]
D{--2------2------6------2------------------------------------]
A{--2------0------4------0------------------------------------]
D{--2---------------------------------------------------------]

DURING MAIN SOLO
e{------------------------------------------------------------]
B{------------------------------------------------------------]
G{------------------------------------------------------------]
D{--9------7------6------5------------------------------------]
A{--9------7------6------5------------------------------------]
D{--9------7------6------5------------------------------------]

e{------------------------------------------------------------]
B{------------------------------------------------------------]
G{------------------------------------------------------------]
D{--7--9-9--7--9-9-7--0---------------------------------------]
A{--7--9-9--7--9-9-7--0---------------------------------------]
D{--7--9-9--7--9-9-7--0---------------------------------------]
D{------------------------------------------------------------]

LEAD

/4
     W
  Gtr I
  ~                  ~~              ~                  ~~
  W  E  E  E   E  Q  W  E  E  E   E  W  E  E  E   E  Q  H  E  E  E  E  E  E  E  Q  E  Q  E  Q E E E  Q
|------------------------------------------------------------------------------------------------------|
|------------------------------------------------------------------------------------------------------|
|-8-12-13-12\-10\-8-13-12-13-12\-10\-8-12-13-12\-10\-8-13-13-13-13-13-13-13-13-13-13-12-12-10-8-7-8-10-|
|------------------------------------------------------------------------------------------------------|
|------------------------------------------------------------------------------------------------------|
|------------------------------------------------------------------------------------------------------|


   T   Q  E  Q  E  H     E  E  E E E E Q E E E Q E  E E Q E Q E Q E  E  E  E  E  E  E
|----------------------------------------------------------------------------------------|
|----------------------------------------------------------------------------------------|
|-11/-13-13-11-11-10b11r10-10-10-7-8-7---7-8-7-------------------------------------------|
|--------------------------------------8-------8-8h10p8-6-6-4-4-3-3/-4\-3\-1/-3/-4\-3----|
|----------------------------------------------------------------------------------------|
|----------------------------------------------------------------------------------------|


                                                                                  T        T        T
  T   Q  E  Q  E  Q E E E  Q  T   Q  E  Q  E  Q  S  S  S  S  S  H  E  E  E  E  E  E  E  E  E  E  E  E  E  E
|----------------------------------------------------------------------------------------------------------|
|-----------------------------------------------------------------------15-------13-------15-------13------|
|10/-13-13-12-12-10-8-7-8-10-11/-13-13-11-11-10h11p10h11p10h11p10-10-11----10-11----10-11----10-11----10-11|
|----------------------------------------------------------------------------------------------------------|
|----------------------------------------------------------------------------------------------------------|
|----------------------------------------------------------------------------------------------------------|


   T        T  T  T  T            ~~
   E  T  T  T  E  E  E  E  E  E   W
|--------------------------------------|
|-13-----------------------------------|
|----10h11h16-10-11-10\-8\-6\-4/-11----|
|--------------------------------------|
|--------------------------------------|
|--------------------------------------|


  E   Q   Q   Q  E    Q   E  E E  E  E  E
|------------------|----------------------|
|------------------|-----------9----------|
|------------------|-----10-11---11-10----|
|-9/-11--11--11--9-|-11----------------11-|
|-7/--9---9---9--7-|--9-------------------|
|------------------|----------------------|


  E E   Q   Q   Q    E  Q   E  E E  E  E    E E
|------------------|---------------------|-------|
|------------------|-------------9-------|-------|
|------------------|-------10-11---11-10-|-------|
|-9-9/-11--11--11--|-9-11----------------|-11-9--|
|---7/--9---9---9--|-7--9----------------|-------|
|------------------|---------------------|-------|


  E   Q   Q   Q  E    Q   E  E E  E  E  E
|------------------|-----------9----------|
|------------------|----------------------|
|------------------|-----10-11---11-10----|
|-9/-11--11--11--9-|-11----------------11-|
|-7/--9---9---9--7-|--9-------------------|
|------------------|----------------------|


  E  E  E  E  E  E  E  E  E  E   S   S  S   S   S   S  E
|---12-15-15-12-15-15-12-14-14/-15/-14-12/-14\-12\-10\-8-|
|--------------------------------------------------------|
|--------------------------------------------------------|
|-9------------------------------------------------------|
|--------------------------------------------------------|
|--------------------------------------------------------|


  E   Q   Q   Q  E    Q   E  E E  E  E  E
|------------------|----------------------|
|------------------|-----------9----------|
|------------------|-----10-11---11-10----|
|-9/-11--11--11--9-|-11----------------11-|
|-7/--9---9---9--7-|--9-------------------|
|------------------|----------------------|


  E E   Q   Q   Q    E  Q   E  E E  E  E    E E
|------------------|---------------------|-------|
|------------------|-------------9-------|-------|
|------------------|-------10-11---11-10-|-------|
|-9-9/-11--11--11--|-9-11----------------|-11-9--|
|---7/--9---9---9--|-7--9----------------|-------|
|------------------|---------------------|-------|


   T              T                T
   E  E E  E E E  E  E   E  E E E  E  E W  H       W       W
|----------------------|-------------------------------------------|
|----------------------|-------------------------------------------|
|-11p10p7-10p7p5-11p10p|=7-10p7p5-11p10p7-16b17.5-14b15.5-13b14----|
|----------------------|-------------------------------------------|
|----------------------|-------------------------------------------|
|----------------------|-------------------------------------------|


Duration Legend
---------------
W - whole; H - half; Q - quarter; E - 8th; S - 16th; T - 32nd; X - 64th; a - acciaccatura
+ - note tied to previous; . - note dotted; .. - note double dotted
Uncapitalized letters represent notes that are staccato (1/2 duration)
Irregular groupings are notated above the duration line
Duration letters will always appear directly above the note/fret number it represents the
duration for.  Duration letters with no fret number below them represent rests.  Multi-
bar rests are notated in the form Wxn, where n is the number of bars to rest for.  Low
melody durations appear below the staff
Suggest correction
What's this?
You can suggest a correction to this tab. Community and Mods will review your correction and vote to approve or reject it.
comments
We did not receive enough feedback on this tab! Please rate:
print report bad tab
1 2 3 4 5
guest
You may want to rate the tab now too:
select rating
Please do not post tabs as comments. Select "correction" instead!