Oops, an error
Loading. Please wait.

Hamesha Tab

version 3
version 3

Whole song

Interactive

1,011 views 1 this week
3 commentsread comments
1 2 3 4 5
x 4
add to favorites
launch autoscroll
font size
0
reset
how to read this tab
guitar tuner
Autoscroll
slow
fast
+/-
esc
set tempo
stop
Help us to improve Ultimate-Guitar.com Take our survey!
×
Author
intro:

   |-X-X-----X-X-----X-X-----X-X-X-X-----X-X-----------------|
   |-X-X-----X-X-----X-X-----X-X-X-X-----X-X-----------------|
   |-X-X-----X-X-----7-7-----5-5-5-5-----7-7-----------------|  
   |-2-2-----5-5-----7-7-----5-5-5-5-----7-7-----------------|  
   |-2-2-----5-5-----5-5-----3-3-3-3-----5-5-----------------|
   |-0-0-----3-3-----X-X-----X-X-X-X-----X-X-----------------|  x4

4th time u end it in :

   |-X-X-X-X-----X-X-X-X---------------|
   |-X-X-X-X-----X-X-X-X---------------|
   |-5-5-5-5-----7-7-7-7---------------|  
   |-5-5-5-5-----7-7-7-7---------------|  
   |-3-3-3-3-----5-5-5-5---------------|
   |-X-X-X-X-----X-X-X-X---------------|

(verse)

chorus:



|-X-X-X----X-X-X----X-X-X----X-X----X-X-----------------|
|-X-X-X----X-X-X----X-X-X----X-X----X-X-----------------|
|-X-X-X----X-X-X----7-7-7----5-5----7-7-----------------|  
|-2-2-2----5-5-5----7-7-7----5-5----7-7-----------------|  
|-2-2-2----5-5-5----5-5-5----3-3----5-5-----------------|
|-0-0-0----3-3-3----X-X-X----X-X----X-X-----------------| 

chahe kuch bhi ho jaye main rahoon ga

chahe waqt tham jaye main rahoon ga

main rahoon ga hamesha main rahoon ga

maut aye tau aye main rahoon ga-----> end with (strum upwards) 022XXX wen he says 'gaa' after a long pause

solo (perfect):

e|------------------------------------------------------------|
B|------------------------------------------------------------|
G|------------------------------------------------------------|
D|---5-5-5/7-7-9-7-5/7-9-7-5-4-5-5-5-7-5-4-5-4-2-4-5-4--------|
A|------------------------------------------------------------|
E|------------------------------------------------------------|


e|-12-12-12-12-14-14-14-14-12-12-12-12-14-14-14-14-12-12-12-12|
B|------------------------------------------------------------|
G|------------------------------------------------------------|
D|------------------------------------------------------------|
A|------------------------------------------------------------|
E|------------------------------------------------------------|

e|-14-14-14-14-15-15-15-15-14-14-14-14-14-12------------------|
B|------------------------------------------------------------|
G|------------------------------------------------------------|
D|------------------------------------------------------------|
A|------------------------------------------------------------|
E|------------------------------------------------------------|

Suggest correction
comments
print report bad tab
3 comments total.
0 reply
ahm3d_nad33m 399 Mar 24, 2006 05:07 AM

The Solo Is WAY Off.........teh last part is:

[-12-12-12-12-14-14-14-14-12-12-12-12-14-14-14-14----]
[--12-12-12-12-12-12-12-12-12-12-12-12-12-12-12-12---]
[----------------------------------------------------]
[----------------------------------------------------]
[----------------------------------------------------]
[----------------------------------------------------]

[-12-12-12-12-14-14-14-14-15-15-15-15-14-14-14-14----]
[--12-12-12-12-12-12-12-12-12-12-12-12-12-12-12-12---]
[----------------------------------------------------]
[----------------------------------------------------]
[----------------------------------------------------]
[----------------------------------------------------]

0 reply
*~-=[D3V!L]=-~* 164 Sep 05, 2006 12:06 PM

hey ur whole solo iz wrong!!!
itz like tiz
[--------------------------------------------------------------]
[--------------------------------------------------------------]
[--------------------------------------------------------------]
[--5-6-5-6-6s8-5---8s10-8-6-4-10-8---5-6-5-6s8-5---6-5-3-5-6-5-]
[--------------------------------------------------------------]
[--------------------------------------------------------------]

[-12-12-12-12-14-14-14-14-12-12-12-12-14-14-14-14--------------]
[--12-12-12-12-12-12-12-12-12-12-12-12-12-12-12-12-------------]
[--------------------------------------------------------------]
[--------------------------------------------------------------]
[--------------------------------------------------------------]
[--------------------------------------------------------------]

[-12-12-12-12-14-14-14-14-15-15-15-15-14-14-14-14--------------]
[--12-12-12-12-12-12-12-12-12-12-12-12-12-12-12-12-------------]
[--------------------------------------------------------------]
[--------------------------------------------------------------]
[--------------------------------------------------------------]
[--------------------------------------------------------------]



0 reply
Limaj_daas 1,407 Mar 28, 2007 06:39 AM

Dude, ur missing half the song.. the verse riff, the rap riff. and in what u hav, the intro is wrong and so is the solo. try tuning down to drop c and then play the song...

guest
You may want to rate the tab now too:
select rating
Wanna post a correction for this tab? Suggest correction