Oops, an error
Loading. Please wait.

Humain Aazma Tab

340 views 1 this week
no commentswrite comment
1 2 3 4 5
please rate
add to favorites
launch autoscroll
font size
0
reset
how to read this tab
guitar tuner
Tab Pro tools
  • play this tab
  • loop segment
  • change instrument
  • show fretboard
  • metronome
×
Best way to learn
"Humain Aazma"
Autoscroll
slow
fast
+/-
esc
set tempo
stop
Contributor
Difficulty
novice
BAND: ENTITY PARADIGM
SONG: HUMAIN AAZMA
ALBUM: IRTIQA
TUNING: DROPPED D
TABBED BY: AHMED NADEEM
COMMENTS TO: AHM3D_NAD33M@HOTMAIL.COM

THERE ARE TWO GUITARS IN THE SONG 
1. LEAD BY XULFI
2. RHYTHM BY HASSAAN)

INTRO 
[DISTORTION]
LEAD
[-------------------------------------]
[-------------------------------------]
[-10-9-7-7-7---10-9-5-5-5-------------]
[-x--x-x-x-x---x--x-x-x-x-------------]
[-8--7-5-5-5---8--7-3-3-3-------------]
[-------------------------------------]
RHYTHM
[-------------------------------------]
[-------------------------------------]
[-------------------------------------]
[-0------------3----------------------]
[-0------------3----------------------]
[-0------------3----------------------]
LEAD
[--------------------------------------------]
[--------------------------------------------]
[-10-9-7-7-7---12--10-9-10-10-10-10-9-9-9-9--]
[-x--x-x-x-x---x---x--x-x--x--x--x--x-x-x-x--]
[-8--7-5-5-5---10--8--7-8--8--8--8--7-7-7-7--]
[--------------------------------------------]
RHYTHM
[--------------------------------------------]
[--------------------------------------------]
[--------------------------------------------]
[-10-----------5-----------------------------]
[-10-----------5-----------------------------]
[-10-----------5-----------------------------]

VERSE
[ ONLY ONE CLEAN GUITAR ]

MUJHKO DEY WOH JO TU NA DEY SAKHA
[--------------------------------------------]
[-------3---------------------3--------------]
[-------2----5-----------5----2--------------]
[-------0----5-----------5----0--------------]
[------------3-----------3-------------------]
[--------------------------------------------]

POST VERSE
BOTH GUITARS
[--------------------------------------------]
[--------------------------------------------]
[-10-9-7--------10-9-12----------------------]
[-x--x-x-3~~~---x--x-x---3~~~~---------------]
[-8--7-5-3~~~---8--7-10--3~~~----------------]
[--------3~~~------------3~~~----------------]

REPEAT VERSE

CHORUS
RHYTHM
AAAAAAA aaaaaaa humain aazma

[--------------------------------------------]
[--------------------------------------------]
[--------------------------------------------]
[-0------10--------8-------10----------------]
[-0------10--------8-------10----------------]
[-0------10--------8-------10----------------]

TOWARDS END OF CHORUS XULFI DOES SOME BENDS USING THE TREMOLO BAR AND THERES ALOT OF FEEDBACK
BEND AROUND THE 12TH FRET OF THE G STRING.

BRIDGE (RAP)
RHYTHM
 PALM MUTED (HEAVY DISTORTION)
[---------]
[---------]
[---------]
[-0-0-0-0-]
[-0-0-0-0-]
[-0-0-0-0-]
LEAD
 PALM MUTED (MEDIUM DISTORTION)
[----------------]
[----------------]
[----------------]
[-3------3-------]
[--5-3-5---5-3-5-]
[----------------]

TOWARDS THE END OF THE BRIDGE WHEN FAWAD STARTS TOO SING THE CHORUS XULFI DOES THIS:
[---------------------]
[---------------------]
[---------------------]
[-3---------3---------]
[---5-3-555--5-3-555--]
[---------------------]
then
[---------------------]
[---------------------]
[---------------------]
[------3------3---3---]
[-5555---5555---55----]
[---------------------]

FINAL CHORUS
RHYTHM
AAAAAAA aaaaaaa humain aazma
 D5      C5        A#5     C5   
[--------------------------------------------]
[--------------------------------------------]
[--------------------------------------------]
[-0------10--------8-------10----------------]
[-0------10--------8-------10----------------]
[-0------10--------8-------10----------------]

LEAD (INDICATED TO PLAY ALONG WITH EACH POWER CHORD)
 D5
[----------------------------------]
[----------------------------------]
[-7-9-10-12-14-14-14-14------------]
[-x-x-x--x--x--x--x--x-------------]
[-5-7-8--10-12-12-12-12------------]
[----------------------------------]

 C5
[----------------------------------]
[----------------------------------]
[-5-9-10-12-14-14-14-14------------]
[-x-x-x--x--x--x--x--x-------------]
[-3-7-8--10-12-12-12-12------------]
[----------------------------------]

A#5
[----------------------------------]
[----------------------------------]
[-7-9-10-12-14-14-14-14------------]
[-x-x-x--x--x--x--x--x-------------]
[-5-7-8--10-12-12-12-12------------]
[----------------------------------]

C5
[-------------------------------------]
[-------------------------------------]
[-14-12-12-10-10-9-9-9-9-7------------]
[-x--x--x--x--x--x-x-x-x-x-(LET RING)-]
[-12-10-10-8--8--7-7-7-7-5------------]
[-------------------------------------]

THEN THE CHORUS REPEATS 
RHYTHM
STRUM EACH POWER CHORD ONCE
[--------------------------------------------]
[--------------------------------------------]
[--------------------------------------------]
[-0------10--------8-------10----------------]
[-0------10--------8-------10----------------]
[-0------10--------8-------10----------------]
LEAD
[--------------------------------------------]
[--------------------------------------------]
[-7---14-12------9-10----12-9--10-5----------]
[-x---x--x-------x-x-----x--x--x--x----------]
[-5---12-10------7-8-----10-7--8--3----------]
[--------------------------------------------]

END ON:
RHYTHM
[---]
[---]
[---]
[-0-]LET RING
[-0-]
[-0-]
LEAD
[---]
[---]
[-7-]
[-x-]LET RING
[-5-]
[---]
comments
We did not receive enough feedback on this tab! Please rate:
print report bad tab
1 2 3 4 5
I want to post or [tab]
guest
You may want to rate the tab now too:
select rating
Please do not post tabs as comments. Select "correction" instead!