Oops, an error
Loading. Please wait.

Kya Hota Acoustic Tab

312 views 1 this week
no commentswrite comment
1 2 3 4 5
please rate
add to favorites
launch autoscroll
font size
0
reset
how to read this tab
guitar tuner
Autoscroll
slow
fast
+/-
esc
set tempo
stop
Help us to improve Ultimate-Guitar.com Take our survey!
×
Author
Kya Hota BY: Entity Paradigm
TAbbed by: Ahmed Nadeem 
Tuning: Standard


Em:022000 G:320003 C:032000 D:000230 F#/D:200232

E5:7799xx F#5:244xxx D5:5577xx A5:577xxx

INTRO
-----0-------0-----0-------0------|
-----0-------0-----0-------0------|
-----0----0--0-----0-------0------|
--2------2-2-----0-------0--------|
-2-2----3-------2-2-----0-0-------|
0--------------3-------2----------|

VERSE
Em C G F#/D
Hai qissa mera par kahani tumahari bhi hai

-----0-------0-----0-------0------|
-----0-------0-----0-------0------|
-----0----0--0-----0-------0------|
--2------2-2-----0-------0--------|
-2-2----3-------2-2-----0-0-------|
0--------------3-------2----------|


MINI SOLO:
--------------2-3-2-------------------5-3-2------------------|
--3-5-3-5-3-5-------5-3---3-5-3-5-3-5-------5-3--------------|
-------------------------------------------------------------|
-------------------------------------------------------------|X2
-------------------------------------------------------------|
-------------------------------------------------------------|
(RHYTHM PLAYS Em, C, G, F#/D)

Em C G D
Tum ghum ho tum kis soch main bathay ho, Kuch bolo to sahi

Em C G D
Darna hai kis baat ka socho jo marna sab nay hai ek din

CHORUS

Em C G D
To yeeeeeh baat thi

Em C G D
Kabhi hi samaj na saki

Em C G D
Yahan bas is soch main

Em C G D
Tha main ghalat ya tha main sahi

POST CHORUS
Em        C   G        D
Nahin dar koi Nahin ab koi ghum

Em         C         G              D (strum once)
Ab jhootay bharam ab torhaingay hum chorhaingay

MINI SOLO:
--------------2-3-2-------------------5-3-2------------------|
--3-5-3-5-3-5-------5-3---3-5-3-5-3-5-------5-3--------------|
-------------------------------------------------------------|
-------------------------------------------------------------|X2
-------------------------------------------------------------|
-------------------------------------------------------------|
(RHYTHM PLAYS Em, C, G, F#/D)
Hum!

Em           C                  G               D  
Karna hai to kya darna socho to Dil main jab ho yaqeeeeen'

Em                 C               G             D
Ghum hai tumko kis bat ka socho jo marna sab nay hai ek din

Hard Strum:

Em C G D
Nahin tum rukna nahin

Em C G D
Kabhi tum jhukna nahin

Em C G D
Yaqeen hai dil main agar

Em C G D
To zameen aasman kuch nahin

POST CHORUS
Em        C   G        D
Nahin dar koi Nahin ab koi ghum

Em         C         G              D (strum once)
Ab jhootay bharam ab torhaingay hum chorhaingay

Music

Em C G F#/D
AAAAAAAAAAAA

Em
Kya hota
C                    G
Jo keh bhi diya hota woh sab
D
Jo main keh na saka
Em
Kya hota
C                         G
Jo main khud say juda hota

(Start strumming with increasing speed)
D
Maut apni jeeya hota

Em   C
Maut apni jeeya hota

G    D
Maut apni jeeya hota

Em   C               G     D(once)
Maut apni jeeya hotaaaaaaaaa (Rise in pitch)

Em
Kya hota
C                    G               D
Jo keh bhi diya hota wo such jo main keh na saka

Em
Kya hota

C                          G                  D
jo main khud say juda hota kash kay main maut apni jiya
                                    F#5
hotaaaaaaaaaaaaaoooooooooooooooaaaaaaaa
F#5, D5, A5, E5
AAAAAAAAAAAAAAAAAAAAAAAAAAAAAAAAA

F#5       D5
Nahin dar koi

A5       E5
Nahin ab koi ghum

F#5           D5             A5               E5  
Ab jhootay bharung ab tordaingay hum chordaingay hum
F#5       D5     A5      E5       
Wo lahu sifar tu cheeeer dalay nazar
F#5         D5       A5         E5 (once) 
Dekhain kab talak sehpaao gay tum...

reh jaaogay tum!
F#5, D5

D5, A5, E5
seh na paao gay tum

F#5               D5
Is say aagay kabhi
D5, A5, E5
    Dek paao gay tum nahin
E5
Kabhi nahi

F#5, D5, A5, E5 (strum four times each)
Suggest correction
What's this?
You can suggest a correction to this tab. Community and Mods will review your correction and vote to approve or reject it.
comments
We did not receive enough feedback on this tab! Please rate:
print report bad tab
1 2 3 4 5
guest
You may want to rate the tab now too:
select rating
Please do not post tabs as comments. Select "correction" instead!