Oops, an error
Loading. Please wait.

Shor Macha Tab

397 views 3 this week
no commentswrite comment
1 2 3 4 5
please rate
add to favorites
launch autoscroll
font size
0
reset
how to read this tab
guitar tuner
Autoscroll
slow
fast
+/-
esc
set tempo
stop
Help us to improve Ultimate-Guitar.com Take our survey!
×
Contributor
Difficulty
Tabbers playing skills
intermediate
intermediate
|---------------------------------------------------------------------------|

                       ||_ Shor Machao - Entity Paradigm _||
|---------------------------------------------------------------------------|

Its my first tab so be kind to it. I did my best to sound this tab close to the Song, 
and it sounds pretty close! Song is totally on E root note!
                                                
Tabbed by: Zaffar A. Shahzad        -       Year : 2010 
Email: draconi.19@gmail.com  
Tuning: EADGBe (Standard) 

Opening main riff which goes after: Awaaz Uthaa............hhh!!

e|--x--x-----x-----x------x-------x---x-------------x-----x-x-x-x-x-----|
B|--x--x-----x-----x------x-------x---x-------------x-----x-x-x-x-x-----|
G|--x--x-----x-----x------x-------x---x-------------x-----x-x-x-x-x-----|
D|--x--x-----x-----x------x-------x---x-------------x-----x-x-x-x-x-----|
A|--2--4--/-10--/--9--/---5--/----7---7-------------5--/--7-7-7-7-7-----|
E|--0--2--/-8---/--7--/---3--/----5---5-------------3--/--5-5-5-5-5-----|
 X2

Strum the A5 power chord as many times!

Then the 2nd part : Teri hy zameen tera hay aasman..in sitaron se aur 
bhee han jahan!! This part comprises of 3 riffs each time with only one 
strum except for one E power chord!

e|--x---x--x-x-x-x--------|--x---x---x-x------|
B|--x---x--x-x-x-x--------|--x---x---x-x------|
G|--x---x--x-x-x-x--------|--x---x---x-x------|
D|--4---2--x-x-x-x--------|--x---4---2-5------|
A|--2---0--2-2-2-2--------|--2---0---3-3------|
E|---------0-0-0-0--------|--x---x---x-x------|


The verse: Chahoo Tooh Sath Hon Asman Manzil Kay 
Nishaan..teri Rahon pe ho karvaaan...

e|--x--x---x----x---x---x---x-x-x-x-x-------x---x-----x-x-x-x-x-x-----|
B|--x--x---x----x---x---x---x-x-x-x-x-------x---x-----x-x-x-x-x-x-----|
G|--x--x---x----x---x---x---x-x-x-x-x-------x---x-----x-x-x-x-x-x-----|
D|--x--x---x----x---x---x---x-x-x-x-x-------x---x-----x-x-x-x-x-x-----|
A|--2--4-/-10-/-5-/-7-/-5-/-7-7-7-7-7-7-----7---5--/--7-7-7-7-7-7-----|
E|--0--2-/-8--/-3-/-5-/-3-/-5-5-5-5-5-5-----5-/-3--/--5-5-5-5-5-5-----|

Mera hay yakeen mera hay imaan, tere hathon me kiya ye 
sara jahan...........

e|--x---x--x-x-x-x--------|--x---x---x-x--------|
B|--x---x--x-x-x-x--------|--x---x---x-x--------|
G|--x---x--x-x-x-x--------|--x---x---x-x--------|
D|--4---2--x-x-x-x--------|--4---2---5-5..------|
A|--2---0--2-2-2-2--------|--2---0---3-3..------|
E|--x---x--0-0-0-0--------|--x---x---x-x--------|

To aaj is mor pe aakhray..To Shor macha...Starts with E5.
Keep it ringing. 
 
e|--x----|
B|--x----|
G|--x----|
D|--2----|
A|--2----|
E|--0----|

I will tab the solo soon, in a update.

Rythem under the solo:
e|--x--x--x--x--x-x-x-x--|-x---x--x---x-x-x-x--|   
B|--x--x--x--x--x-x-x-x--|-x---x--x---x-x-x-x--|
G|--x--x--x--x--x-x-x-x--|-x---x--x---x-x-x-x--|
D|--x--5--x--x--x-x-x-x--|-x---x--x---x-x-x-x--|
A|--2--3--5--3--7-7-7-7--|-2---3--5---7-7-7-7--|
E|--0-----3--1--5-5-5-5--|-0---1--3---5-5-5-5--|

Pak Sar Zameen Ka Neezam...Kuwat E Akhoowat...

e|--x--x--x--x--x--x---|--x---x----x----x---|
B|--x--x--x--x--x--x---|--x---x----x----x---|
G|--x--x--x--x--x--x---|--x---x----x----x---|
D|--x--x--x--x--x--x---|--x---x----x----x---|
A|--2--5--10-9--3--7---|--2---5----3----7---|
E|--0--3--8--7--1--5---|--0---3----1----5---|

End:
Chaho To Asmaan Hay Tumhara...Manzil hay Tumhari...

e|--x--x--x----x---x---x---x-x-x-x-x-------x---x-----x-x-x-x-x-x-----|
B|--x--x--x----x---x---x---x-x-x-x-x-------x---x-----x-x-x-x-x-x-----|
G|--x--x--x----x---x---x---x-x-x-x-x-------x---x-----x-x-x-x-x-x-----|
D|--x--x--x----x---x---x---x-x-x-x-x-------x---x-----x-x-x-x-x-x-----|
A|--2--4--10-/-5-/-7-/-5-/-7-7-7-7-7-7-----7---5--/--7-7-7-7-7-7-----|
E|--0--2--8--/-3-/-5-/-3-/-5-5-5-5-5-5-----5-/-3--/--5-5-5-5-5-5-----|   
 

Thank You! Your feedback will be very much appreciated!
Suggest correction What's this?
You can suggest a correction to this tab. Community and Mods will review your correction and vote to approve or reject it.
comments
We did not receive enough feedback on this tab! Please rate:
print report bad tab
1 2 3 4 5
I want to post or [tab]
guest
You may want to rate the tab now too:
select rating
Please do not post tabs as comments. Select "correction" instead!