Oops, an error
Loading. Please wait.

Waqt Tab

version 2
version 2

Whole song

Interactive

1,533 views 1 this week
1 commentread comment
1 2 3 4 5
excellent!
x 1
add to favorites
launch autoscroll
font size
0
reset
how to read this tab
guitar tuner
Tab Pro tools
  • play this tab
  • loop segment
  • change instrument
  • show fretboard
  • metronome
Autoscroll
slow
fast
+/-
esc
set tempo
stop
Contributor
Difficulty
Tuning
novice
D A D G B E
Hey... i couldn't find a full tab of the song... so i did this... this work wuz done 
ago but i forgot about it... i need help wid da chorus cuz i can't figure it out. so 
just look thru it.

Move piano riffs 1a;2a;3a up to the 19th fret. do the same to chorus piano riff.... 
the VERY DIM piano riff alone!


Piano Intro:

Very Dim

e -20~~~~-20~~~~~-18~~~~-18~~~~~-|
B -------------------------------|
G -------------------------------|
D -------------------------------|
A -------------------------------|
E -------------------------------|

Riff 1a:
									    ENDING--BIT
e ----15-14----14-12-10-12----15-14----14-12-10-12----15-14----14-12-10-12~-------15p12-|
B -12-------12-------------12-------12-------------12-------12--------------12h15-------|
G --------------------------------------------------------------------------------------|
D --------------------------------------------------------------------------------------|
A --------------------------------------------------------------------------------------|
E --------------------------------------------------------------------------------------|

Riff 1b:

e -5-5-5-5-5~-5-5-5-8-8-8-8-8~-8-8-8-3-3-3-3-3~-3-3-3-|
B ----------------------------------------------------|
G ----------------------------------------------------|
D ----------------------------------------------------|
A ----------------------------------------------------|
E ----------------------------------------------------|

Riff 2a:

e ----18-17----17-15-13-15----18-17----17-15-13-15----18-17----17-15-13-15-|
B -15-------15-------------15-------15-------------15-------15-------------|
G -------------------------------------------------------------------------|
D -------------------------------------------------------------------------|
A -------------------------------------------------------------------------|
E -------------------------------------------------------------------------|

Riff 2b:

e -5-5-5-5-5~-5-5-5-8-8-8-8-8~-8-8-8-3-3-3-3-3~-3-3-3-1-1-1-1-1~-1-1-1-|
B ---------------------------------------------------------------------|
G ---------------------------------------------------------------------|
D ---------------------------------------------------------------------|
A ---------------------------------------------------------------------|
E ---------------------------------------------------------------------|

Riff 3a:

e ----18-17----17-15-13-15----18-17----17-15-13-15----18-17----17-15-13-15-|
B -15-------15-------------15-------15-------------15-------15-------------|
G -------------------------------------------------------------------------|
D -------------------------------------------------------------------------|
A -------------------------------------------------------------------------|
E -------------------------------------------------------------------------|

Riff 3b:

e -----------------------------------------------------------------------------|
B -----------------------------------------------------------------------------|
G -----------------------------------------------------------------------------|
D -----------------------------------------------------------------------------|
A -----------------------------------------------------------------------------|
E -7-7-7-7-7~-7-7-7-10-10-10-10-10~-10-10-10-5-5-5-5-5~-5-5-5-3-3-3-3-3~-3-3-3-|

DISTORTION STARTS HERE:

2 guitars plz...And a keyboard too.
Figure out the timing urself...

Rhythm:

e -------------------------------|
B -------------------------------|
G -------------------------------|
D -----10~-6~-1~-8~-10~-6~-1~-8~-|
A -----10~-6~-1~-8~-10~-6~-1~-8~-|
D -----10~-6~-1~-8~-10~-6~-1~-8~-|

Lead:

e ----------------------------------------------------------------------------|
B ----------------------------------------------------------------------------|
G -----/8~-7~-5~-3/5~-3~-0~-0/3~-3/5-5/7~-/8~-7~-5~-3h5/7-0-0h3-3/12-10h12p10-|
D -x-x------------------------------------------------------------------------|
A -x-x------------------------------------------------------------------------|
D -x-x------------------------------------------------------------------------|

Keyboard:

e ----18-17----17-15-13-15----18-17----17-15-13-15----18-17----17-15-13-15-|
B -15-------15-------------15-------15-------------15-------15-------------|
G -------------------------------------------------------------------------|
D -------------------------------------------------------------------------|
A -------------------------------------------------------------------------|
E -------------------------------------------------------------------------|

RAP:

e -------------------------|
B -------------------------|
G -------------------------|
D ----5---3---3h5---5---5--|
A --3---3---3-----3---3----|
D -------------------------|

e -----------------------------|
B -----------------------------|
G ---8---7---10---8---7h8------|
D -6---6---6----6---6----------|
A -----------------------------|
D -----------------------------|

e -------------------------|
B -------------------------|
G ----5---7---5---5---5----|
D --3---3---3---3---3------|
A -------------------------|
D -------------------------|

e --------------------|
B --------------------|
G ---3----------------|
D -1---1-0~-0-0-0-0-0-|
A --------------------|
D --------------------|

VERSE:

Guitars 1 n' 2:
   Ek ehsaas hai
e ---------|
B -----6---|
G ---7---7-|
D -5-------|
A ---------|
D ---------|

   Keh socha na tha
e ------------|
B ------11----|
G ---10----10-|
D -8----------|
A ------------|
D ------------|

   Waqt dhalta raha
e -----1---|
B ---------|
G ---3---3-|
D -1-------|
A ---------|
D ---------|

   Main chalta raha
e ---------|
B -----1---|
G ---------|
D ---3---3-|
A -1-------|
D ---------|

Repeat twice...

Keyboard:

e ----18-17----17-15-13-15----18-17----17-15-13-15----18-17----17-15-13-15-|
B -15-------15-------------15-------15-------------15-------15-------------|
G -------------------------------------------------------------------------|
D -------------------------------------------------------------------------|
A -------------------------------------------------------------------------|
E -------------------------------------------------------------------------|

Repeat this till u get bored to death... Or till guitar 1 finishes it's part... man wutever, just do it!

CHORUS:

Chords used in chorus are as follows:
   C5  G#5 Bb5 Eb5  F5  D5  C5
e -----------------------------|
B -----------------------------|
G --------------8---10---7---5-|
D -10---6---8---8---10---7---5-|
A -10---6---8---6---8----5---3-|
D -10---6---8------------------|

----C5--G#5--Bb5-----------
Tau dil mera roye to kia

C5---G#5-------Eb5------F5---D5-C5-
Waqt iradon ko torey to kia

C5--------G#5--Bb5-------------
Manzil ko apni payen gai hum

C5------G#5--Eb5-----F5--D5-C5-
Waqt ko apna banayen gai hum

Post-Chorus Santa Claus Calling Part...

C5-------Bb5------G#6------Bb5-        Keyboard:    e -------------18--|
Hooooooo Hooooooo Hooooooo oooh                B -13-15-16-15----------|
                            G -----------------------------------------|
NOOOOOOOOCHOOORDS                    D --------------------------------|
Jo chahoon woh ho                    A --------------------------------|
                            D -----------------------------------------|
C5-------Bb5------G#6------Bb5-----------------------------------------|
Hooooooo Hooooooo Hooooooo oooh

REPEAT RAP RIFF
REPEAT VERSE
REPEAT CHORUS EXCEPT WHEN U COME TO THE SANTA PART AFTER THE FADED hOOOOOOs THE CHORDS THAT FOLLOW ARE:

  C5  Bb5  F5 G#5
e -x---x---x---x-|
B -x---x---x---x-|
G -5---3---x---x-|
D -5---3---3---6-|
A -3---1---3---6-|
D -x---x---3---6-|

FIGURE OUT THE TIMING URSELF. THESE ARE ALSO THE CHORDS PLAYED BEHIND THESE LYRICS:

Is dhool kai khumar sai nashey mein rahey
Giray jin diyon pai pardey jaley na bujhey

KEYBOARD SOLO + 2 Guitars:

PART 1:

Keyboard:

e -------------------------------------------------------|
B ----8-6-11~-8~-6~-4-4h6p4---/11-8~-11~-16-15-13-15-11~-|
G -5~-----------------------7----------------------------|
D -------------------------------------------------------|
A -------------------------------------------------------|
D -------------------------------------------------------|

e -------------------------------------------------------|
B ----8-6-11~-8~-6~-4-4h6p4---/11-8~-11~-16-15-13-15-11~-|
G -5~-----------------------7----------------------------|
D -------------------------------------------------------|
A -------------------------------------------------------|
D -------------------------------------------------------|

	PART 2

	Keyboard:

	e -------------------------------------------------------|
	B ----8-6-11~-8~-6~-4-4h6p4---/11-8~-11~-16-15-13-15-11~-|
	G -5~-----------------------7----------------------------|
	D -------------------------------------------------------|
	A -------------------------------------------------------|
	D -------------------------------------------------------|

	Rhythm Guitar:

	STRUM IN TIME... THAT MEANS FIGURE OUT TIMING AND PATTERN URSELF

	e ---------------------|
	B ---------------------|
	G -3----3--------------|
	D -3----3----3----8----|
	A -5----1----3----8----|
	D -----------3----8----|

	PART 3 (Repeat Twice)

	Keyboard:

	e -------------------------------------------------------|
	B ----8-6----8-6----8-6--16-15-13-15-13-11-11------------|
	G -5~-----5~-----5~--------------------------------------|
	D -------------------------------------------------------|
	A -------------------------------------------------------|
	D -------------------------------------------------------|

	Rhythm Guitar:

	e ---------------------|
	B ---------------------|
	G -3----3--------------|
	D -3----3----3----8----|
	A -5----1----3----8----|
	D -----------3----8----|

	Lead Guitar:

	e -------------------------------------------------------|
	B ---6/8\6-------6/8\6-------6/8\6-----------------------|
	G -5-------8-7-8-------8-7-8-------8-7-8-7p5\3-----------|
	D -------------------------------------------------------|
	A -------------------------------------------------------|
	D -------------------------------------------------------|

AS SOON AS THE SOLO ENDS JUMP INTO SANTA CLAUS PART:

C5-------Bb5------G#6------Bb5-        Keyboard:    e -------------18--|
Hooooooo Hooooooo Hooooooo oooh                B -13-15-16-15----------|
                            G -----------------------------------------|
NOOOOOOOOCHOOORDS                    D --------------------------------|
Jo chahoon woh ho                    A --------------------------------|
                            D -----------------------------------------|
C5-------Bb5------G#6------Bb5-----------------------------------------|
Hooooooo Hooooooo Hooooooo oooh

REPEAT AS MANY TIMES AS NECESSARY
THE KEYBOARD RIFF ALTERS A BIT AND STARTS SOUNDING LIKE THIS:

e -------------18-20-|
B -13-15-16-15-------|
G -------------------|
D -------------------|
A -------------------|
D -------------------|

THE LAST SOLO GOES LIKE THIS (THANKS TO WHOEVER TABBD IT... CAN'T REMEMBER WHO...

LEAD GUITAR:

e ---------------------------------------------------------------------------------|
B -3/10-11-------------------------------------------------------------------------|
G ---------10~-12-12/14-10-9-10-9-5~~~~/14-12h14-12~~------------------------------|
D ---------------------------------------------------------------------------------|
A ---------------------------------------------------------------------------------|
D ---------------------------------------------------------------------------------|

e ---------------------------------------------------------------------------------|
B -3/10-11-----------11/13---------------------------------------------------------|
G ---------10~-10-12-------10-9-10-9-5~~~~/14-12h14-12~~~~-12/14~~~~~~~~-----------|
D ---------------------------------------------------------------------------------|
A ---------------------------------------------------------------------------------|
D ---------------------------------------------------------------------------------|

RHYTHMS:

SAME AS THE SANTA CLAUS PART.

AND THEN IN THE END THE FLUTE PART IS THIS:

Keyboard:

e -------------------------------------------------------|
B ----8-6-11~-8~-6~-4-4h6p4---/11-8~-11~-16-15-13-15-11~-|
G -5~-----------------------7----------------------------|
D -------------------------------------------------------|
A -------------------------------------------------------|
D -------------------------------------------------------|
comments
We did not receive enough feedback on this tab! Please rate:
print report bad tab
1 2 3 4 5
1 comment total.
0 reply
noviznamclaw wrote on July 22 2007, 08:09 am

gr8 tab

noviz

I want to post or [tab]
guest
You may want to rate the tab now too:
select rating
Please do not post tabs as comments. Select "correction" instead!