Oops, an error
Loading. Please wait.

Damn Deal Done tab

version 2
version 2

Whole song

  • Detailed riffs and arrangement. No solo transcription though.
124 views 3 this week
no commentswrite comment
1 2 3 4 5
3 more votes to show rating
add to favorites
×
Save as Personal and add changes to this tab that will be seen only by you. Learn more ›
×
You can save this tab as Personal to edit and correct it or add notes. All changes will be seen only by you. Learn more »
launch autoscroll
font size
0
reset
how to read this tab
guitar tuner
edit
Autoscroll
slow
fast
+/-
esc
set tempo
stop
Author
About this tab version
Detailed riffs and arrangement. No solo transcription though. Was this info helpful? Yes No
Damn Deal Done
--------------
By: Entombed.
Tuning: C standard.
Tempo: Starting at ~165 BPM, ending at ~170 BPM.
Pay attention to the time signatures!


[Intro 1/Chorus]

 (RIFF A1: PLAY TWICE.)
 4/4

e|---------------------|---------------------|
B|---------------------|---------------------|
G|---------------------|---------------------|
D|---------------------|-------------2-------|
A|---7---5-------------|--/7-5-------2-------|
E|-----------6---5-3---|-------6-5-3-0-------|

 (RIFF A2)
 4/4                   3/4
e|---------------------|-----------------|
B|---------------------|-----------------|
G|---------------------|-----------------|
D|---------------------|-------------2---|
A|---7---5-------------|--/7-5-------2---|
E|-----------6---5-3---|-------6-5-3-0---|

 (RIFF A3)
 4/4                   2/4      
e|---------------------|-------------|
B|---------------------|-------------|
G|---------------------|-------------|
D|---------------------|-------------|
A|---7---5-------------|--/7-5-------|
E|-----------6---5-3---|-------6-5---|


   INTRO2/SOLO:
   (RIFF B1)
   Observe: Notation for two guitars!
   4/4
e|---------------------------------|------------------------------|
B|---------------------------------|------------------------------|
G|---------------------------------|------------------------------|
D|---2-2-------5---------------5---|---2-2-------5--------2-5-8---|
A|---2-2---5-7-----7-5-7-------5---|---2-2---5-7-----7\---2-5-8---|
E|---0-0-------------------6-5-3---|---0-0----------------0-3-6---|
 |         PM-             PM-               PM-          PM-
 |
e|---------------------------------|------------------------------|
B|---------------------------------|------------------------------|
G|---------------------------------|------------------------------|
D|---2-2-m-------------------------|---2-2-m--------------2-5-8---|
A|---2-2-m-------------------------|---2-2-m--------------2-5-8---|
E|---0-0-m-------------------------|---0-0-m--------------0-3-6---|
                                                          PM-
 4/4

e|---------------------------------|-----------------------------------|
B|---------------------------------|-----------------------------------|
G|---------------------------------|-----------------------------------|
D|---2-2-------5---------------5---|---2-2-------7b(8)---7-5-7-5-7-5---|
A|---2-2---5-7-----7-5-7-------5---|---2-2---5-7---------7-5-7-5-7-5---|
E|---0-0-------------------6-5-3---|---0-0-----------------------------|
|                         PM-
|
e|---------------------------------|-----------------------------------|
B|---------------------------------|-----------------------------------|
G|---------------------------------|-----------------------------------|
D|---2-2-m-------------------------|---2-2-------7b(8)---7-5-7-5-7-5---|
A|---2-2-m-------------------------|---2-2---------------7-5-7-5-7-5---|
E|---0-0-m-------------------------|---0-0-----------------------------|


[Verse 1]

   (Riff C1: PLAY 4 TIMES.)
   4/4
e|-----------------------------------|
B|-----------------------------------|
G|-----------------------------------|
D|-----------2-----2---8---7-5-7-5---|
A|---7\5-----2-----2---8---7-5-7-5---|
E|---5\3-0-0-0-0-0-0-0-6---5-3-5-3---|
         PM-   PM-  PM     PM-----

   (Riff D: PLAY TWICE.)
   4/4
e|-----------------------------------|
B|-----------------------------------|
G|-----------9-9-9-9\----------------|
D|-----------9-9-9-9\--8---7-5-7-5---|
A|---7\5---------------8---7-5-7-5---|
E|---5\3-0-0-----------6---5-3-5-3---|
         PM-               PM-----

 (PLAY RIFF C1 ONCE.)

   (RIFF C2)
   4/4
e|-----------------------------------|
B|-----------------------------------|
G|-----------------------------------|
D|-----------------------------------|
A|---7\5-----------------------------|
E|---5\3-0-x-x-x-x-x-x-x-x-x-x-x-x---|
           natural harmonics slide.

[Bridge]
 (PLAY RIFF A1 from INTRO TWICE.)

[Verse 2]
 (SAME AS VERSE 1.)

[Chorus]
 (RIFF A1 + A2)

 SOLO (1st: UFFE, 2nd: ALEX):
 (RHYTHM GUITAR PLAYS RIFF B1 TWICE.)

   INTERMISSION/MOSH SECTION:
   (RIFF E: PLAY 6 TIMES.)
   4/4
e|-------------------------------------|
B|-------------------------------------|
G|-------------------------------------|
D|-------------------------------------|
A|---4-4-4-4-4-4-4-4-4-4-4-4-4-4-4-4---|
E|---2-2-2-2-2-2-2-2-2-2-2-2-2-2-2-2---|
     PM-----------------------------

   (RIFF F: PLAY 8 TIMES (while drums play 4 bars of 5/4 and 5 bars of 4/4).)
   5/4
e|-------------------------|
B|-------------------------|
G|-------------------------|
D|-------------------------|
A|---2-2-8---7-5-7-5-7\5---|
E|---0-0-6---5-3-5-3-5\3---|
     PM-     PM-----

   (RIFF G)
   4/4
e|-------------------------------------|-------------------------------------|
B|-------------------------------------|-------------------------------------|
G|-------------------------------------|-------------------9-9-9-9-9-9-9-9---|
D|---2---2-2-2-2-2-2--2--2-2-2-2-2-2---|---2-2-2-2-9-9-9-9-9-9-9-9-9-9-9-9---|
A|---2---2-2-2-2-2-2--2--2-2-2-2-2-2---|---2-2-2-2-7-7-7-7-7-7-7-7-7-7-7-7---|
E|---0---0-0-0-0-0-0--0--0-0-0-0-0-0---|---0-0-0-0-0-0-0-0-------------------|
         PM-------       PM---------       PM-------------

   FAKE ENDING:
   (RIFF H: Something like this, but with wailing over it.)
   4/4
e|---------------------------------------------------------------------|
B|---------------------------------------------------------------------|
G|-----------------------------------9-9-9-9-9-9-9-9-9-9-9-9-9-9-9-9---|
D|---9-9-9-9-9-9-9-9-9-9-9-9-9-9-9-9-9-9-9-9-9-9-9-9-9-9-9-9-9-9-9-9---|
A|---7-7-7-7-7-7-7-7-7-7-7-7-7-7-7-7-7-7-7-7-7-7-7-7-7-7-7-7-7-7-7-7---|
E|---0-0-0-0-0-0-0-0-0-0-0-0-0-0-0-0-----------------------------------|

   (RIFF B2)
   4/4
e|-------------------------------------|-------------------------------------|
B|-------------------------------------|-------------------------------------|
G|-------------------------------------|-------------------------------------|
D|---2---2---m-------------------------|---2---2---m-----------------2-5-8---|
A|---2---2---m-------------------------|---2---2---m-----------------2-5-8---|
E|---0---0---m-------------------------|---0---0---m-----------------0-3-6---|
                                                                     PM-
 4/4

e|-------------------------------------|-------------------------------------|
B|-------------------------------------|-------------------------------------|
G|-------------------------------------|-------------------------------------|
D|---2---2---m-------------------------|---2---2-----------------------------|
A|---2---2---m-------------------------|---2---2-----------------------------|
E|---0---0---m-------------------------|---0---0---x-x-x-x-x-x-x-x-x-x-x-x---|
                                                   natural harmonics slide.

[Last Chorus]

 (PLAY RIFF A1 TWICE.)

 (PLAY RIFF A2 TWICE.)

 (PLAY RIFF A3 TWICE.)


[Outro]

   1/4
e|-----------|
B|-----------|
G|-----------|
D|---2-2-m---|
A|---2-2-m---|
E|---0-0-m---|
           FIN.


************************************

| x   Muted note                   
| h   Legato, Hammer-on            
| p   Legato, Pull-off             
| b   Bend                         
| br  Bend release                 
| pb  Pre-bend                     
| pbr Pre-bend release             
| /   Slide up                     
| \   Slide down                   
| ~   Vibrato                      
| s   Slap                         
| P   Pop                          
| PM  Palm mute                    
| m   Pause (mute any played notes)

************************************
Suggest correction
Creating personal tab
Creating personal tab
You can edit any tab online and save it as your Personal.

You can edit, replace or remove any tab part or add personal notes – all changes will be seen only by you.

Personal tabs can be accessed anytime from any device, even offline.
Learn more »
Give kudos to tab author, rate the tab!
1 2 3 4 5
comments
print report bad tab
guest
You may want to rate the tab now too:
select rating
Wanna post a correction for this tab? Suggest correction