Oops, an error
Loading. Please wait.

Thy Guiding Light tab

version 1
version 1

Whole song

Interactive

by Entwine
297 views 1 this week
no commentswrite comment
1 2 3 4 5
3 more votes to show rating
add to favorites
×
Save as Personal and add changes to this tab that will be seen only by you. Learn more ›
×
You can save this tab as Personal to edit and correct it or add notes. All changes will be seen only by you. Learn more »
launch autoscroll
font size
0
reset
how to read this tab
guitar tuner
edit
Autoscroll
slow
fast
+/-
esc
set tempo
stop
Thy guiding light
------------------
By Entwine
>From album:
The treasures within hearts


Music and lyrics by Entwine
Tab by Masquerade
E-Mail:masquerade@hotmail.com

Notation:
.. = palm mute
th = thrill
~ = vibrato with finger
v~ = vibrato with vibraslam
h = hammer-on
p = pull-on
 > = release
X = dump
t = tap
/ = slide up
\ = slide down


1. Tune down one whole step!! (D,G,C,F,A,d)
2. This is my first tabulature, so...
3. Made 11.11. 2001
_____________________________________________

Riff 1
Twice

-------------------------------------------------
-------------------------------------------------
-9th--9th--9th--9th-5-5-5--5th--7th-----7-----7--
-9th--9th--9th--9th-5-5-5--5th--7th---7----7-----
-7th--7th--7th--7th-3-3-3--3th--5th-5------------
-0th--0th--0th--0th------------------------------

Fill 1

---
---
-9-
-9-
-7-
-0-

Riff 2
Violin figure arranged for guitar
Twice

------------------------------------------------------
------------------12--10---(10)-10----------------10--
-------9-11-13---------------------13-11----13--------
-11---------------------------------------------------
------------------------------------------------------
------------------------------------------------------


Verse

Riff 3
Twice
---------------------------------------
---------------------------------------
---------------------------------------
-6--------------------------------(4)--
-4-------6--------7--6----4----(4)-----
---------4--------5--4----2-(2)--------


Interlude

Riff 4
Twice

---------------------------------------------------------
---------------------------------------------------------
-------6-------------6-----------------------------------
-6---6------4--6---6-------4-------------------------(6)-
-4-4--------2--4-4---------2--7th--7th--6--4th--4th--(4)-
------------------------------5th--5th--4--2th--2th------


Chorus

Riff 5

Guitar 1
Twice
--------------------------------------------------------------------
--------------------------------------------10----------------------
--------------------9---------------------------13----11--9-11-9----
-11----11--11-11-11----12--11--12----11-12--------------------------
--------------------------------------------------------------------
--------------------------------------------------------------------

Guitar 2
Twice
-------------------------------------
-------------------------------------
-------------------------------------
-6--------7--------------------------
-4--------5--------7--------9--------
-------------------5--------7--------


Fill 2

---
---
---
-6-
-4-
---

Back to Riff 2


Guitar solo                                                  Only
Twice                                                        1st
                                                             Time
-----------------------------------------------------------|------
-----------------------------10----------------------------|------
-------9------------------------13~--13h11p13-9----11--9---|--9---
-11-------12--11p12h11-12---------------------------------9|----9-
-----------------------------------------------------------|------
-----------------------------------------------------------|------


Play Riff 5 Twice


Guitar solo 2

Guitar 1
-------------------------------------------------------------------
-------------10----------------------------------------------------
----------------13~--13p11--11---------------------9---------------
-12----11-12--------------------11--12----11p12h11----12--11-------
---------------------------------------------------------------12--
-------------------------------------------------------------------

-------------------------------------------------------18----\
-15----15p17h15-14-----------------15----15p17h15-14----------
-------------------14----13--12-------------------------------
--------------------------------------------------------------
--------------------------------------------------------------
--------------------------------------------------------------

Guitar 2
Twice
-------------------------------------
-------------------------------------
-------------------------------------
-4----4-4----------4----4-4----------
-2----2-2-4----4-4-2----2-2-4----4-4-
----------2----2-2----------2----2-2-


End

-----------------
-----------------
-9-9-------------
-9-9-------------
-7-7--Fade out...
-0-0-------------


Song structure:
Riff 1 Twice
Fill 1
Riff 2 Twice
Riff 3 Twice (Vocals)
Riff 4 Twice (Vocals)
Riff 5 Twice (Vocals)
Fill 2
Riff 2 Twice
Riff 3 Twice (Vocals)
Riff 4 Twice (Vocals)
Riff 5 Twice (Vocals)
Fill 2
Guitar solo 1 Twice
Riff 5 (Vocals)
Guitar solo 2
Riff 1 Twice
End

Ok, that's it.
If you find mistakes, please mail me!!!!!

            
            
Suggest correction
Creating personal tab
Creating personal tab
You can edit any tab online and save it as your Personal.

You can edit, replace or remove any tab part or add personal notes – all changes will be seen only by you.

Personal tabs can be accessed anytime from any device, even offline.
Learn more »
Give kudos to tab author, rate the tab!
1 2 3 4 5
comments
print report bad tab
guest
Wanna post a correction for this tab? Suggest correction