Oops, an error
Loading. Please wait.

A Will Remains In The Ashes Tab

by Envy
2,854 views 1 this week
no commentswrite comment
1 2 3 4 5
please rate
add to favorites
launch autoscroll
font size
0
reset
how to read this tab
guitar tuner
Autoscroll
slow
fast
+/-
esc
set tempo
stop
Help us to improve Ultimate-Guitar.com Take our survey!
×
Author
jaymz88 1,144
#----------------------------------PLEASE NOTE--------------------------------#
#This file is the author's own work and represents their interpretation of the#
#song. You may only use this file for private study, scholarship, or research.#
#-----------------------------------------------------------------------------#
#-- File created with Instab - http://www.pconline.com/~smcarey/instab.html --#
#-----------------------------------------------------------------------------#

Author/Artist: Envy
Title: A Will Remains In The Ashes
Album: A Dead Sinking Story
Transcribed by: Jaymz88
Tunning : D Standard
I don't think the tune is right.
I think they played it in Drop D but you can play it 1 step down.
I just tab this song for one guitar. Normaly, the 2 guitars are different
all the time but it's too hard (for me) to tab the 2 guitars by ears.
There is probably some mistakes but at least, I tried to tab this amazing song.

Clean part
-||------------------------------------------------------------|--------------|
-||----------------------------5-------5-------4-------4-------|--------------|
-||------------------------------------------------------------|--------------|
-||----4---------------------------6-------6-------6-------6---|--------------|
-||--------7-------7---6---------------------------------------|--------------|
-||------------4-----------------------------------------------|--------------|


------------------------------------------------------------------------------|
------------------------------------------------------------------------------|
--------------------------------------4/6--4-----4------------8-----9/8-------|
-------4--------------------------6----------------6---6--7------7-------7----|
-----------7-------7---6------6---------------7-------------------------------|
---------------4-----------4--------------------------------------------------|


------------------------------------------------------------------------------|
------------------------------------------------------------------------------|
----------------------------------------------------------------4/6---4----4--|
-6-----------7-----------------4----------------------------6-----------------|
-----6---7-------7-----------------7--------7---6-------6----------------7----|
---------------------0-----------------4------------4-------------------------|


-----------------------------------------------------------||-----------------|
-----------------------------------------------------------||-----------------|
---------------8-------9/8---------------------------------||-----------------|
--6-----6--7-------7--------7--6-------------7-------------||-----------------|
------------------------------------6----7-------11--------||-----------------|
--------------------------------------------------0--------||-----------------|


-||------------------------------------------------------------------------|--|
-||------------------------------------------------------------------------|--|
-||---13----------------18----------------16----------------14-------------|--|
-||------------------------------------------------------------------------|--|
-||---11----------------16----------------14----------------12-------------|--|
-||------------------------------------------------------------------------|--|


---------------------------------------------------------------------------|--|
---------------------------------------------------------------------------|--|
------13----13----13----18----18----18----16----16----16----14---14---14---|--|
---------------------------------------------------------------------------|--|
------11----11----11----16----16----16----14----14----14----12---12---12---|--|
---------------------------------------------------------------------------|--|

                                                  (Distorsion Guitar)
-------------------------------------------------||---------------------------|
-------------------------------------------------||---------------------------|
------13----13----13----18----18----18----16-----||----------11---11--11/14---|
-------------------------------------------------||---------------------------|
------11----11----11----16----16----16----14-----||-----------9----9---9/12---|
-------------------------------------------------||---------------------------|


-||------------------------------------------------------------------------|-|
-||------------------------------------------------------------------------|-|
-||---13----13----13----18----18----18----16----16----16---11---11--11/14--|-|
-||------------------------------------------------------------------------|-|
-||---11----11----11----16----16----16----14----14----14----9----9---9/12--|-|
-||------------------------------------------------------------------------|-|

-----------------------------------------------------------------------------|
-----------------------------------------------------------------------------|
------13----13----13----18----18----18----16-------------11------11----------|
-----------------------------------------------------------------------------|
------11----11----11----16----16----16----14--------------9-------9----------|
-----------------------------------------------------------------------------|


Clean part
-||--------------------------------------|---------------------------------|-|
-||--------------------------------------|---------------------------------|-|
-||------11------11--11-------11---13----|------11------11--11------11-----|-|
-||--14------14----------14--------------|--14------14----------14------14-|-|
-||--------------------------------------|---------------------------------|-|
-||--------------------------------------|---------------------------------|-|


-||--------------|------------------------------------------------------------|
-||--10/9--------|-10------10-------9-------9-------10------10------9------9--|
-||--------9--8--|------------------------------------------------------------|
-||--------------|-----11-------11------11------11------11------11-----11-----|
-||--------------|------------------------------------------------------------|
-||--------------|------------------------------------------------------------|


------------------------------------------------------------------||----------|
------10------10-------12--10--9----------------------------------||----------|
----------------------------------------------13------------------||----------|
--11------11------11---------------11--9--11-------11-----9---11--||----------|
------------------------------------------------------------------||----------|
------------------------------------------------------------------||----------|

-||------------------------------------------------------------|--------------|
-||----------------------------5-------5-------4-------4-------|--------------|
-||------------------------------------------------------------|--------------|
-||----4---------------------------6-------6-------6-------6---|--------------|
-||--------7-------7---6---------------------------------------|--------------|
-||------------4-----------------------------------------------|--------------|


------------------------------------------------------------------------------|
------------------------------------------------------------------------------|
--------------------------------------4/6--4----4-------------8-----9/8-------|
-------4--------------------------6---------------6----6--7------7-------7----|
-----------7-------7---6------6---------------7-------------------------------|
---------------4-----------4--------------------------------------------------|


------------------------------------------------------------------------------|
------------------------------------------------------------------------------|
----------------------------------------------------------------4/6---4----4--|
-6-----------7-----------------4----------------------------6-----------------|
-----6---7-------7-----------------7--------7---6-------6----------------7----|
---------------------0-----------------4------------4-------------------------|


-----------------------------------------------------------------------------|
-----------------------------------------------------------------------------|
---------------8-------9/8--------------------------------------8-----9/8----|
--6-----6--7-------7--------7--6-------------7----------6---7------7---------|
------------------------------------6----7------7----------------------------|
----------------------------------------------------0------------------------|

------------------------------------------------------------||----------------|
------------------------------------------------------------||----------------|
---------------------------------13-------------------------||----------------|
--7---6-------------------7---------------------------------||----------------|
-----------6-------7-------------11-------------------------||----------------|
----------------------------------0-------------------------||----------------|


-||------------------------------------------------------------------------|-|
-||------------------------------------------------------------------------|-|
-||---13----13----13----18----18----18----16----16----16---11---11--11/14--|-|
-||------------------------------------------------------------------------|-|
-||---11----11----11----16----16----16----14----14----14----9----9---9/12--|-|
-||------------------------------------------------------------------------|-|


-||---------------------------------------------------------------------------|
-||---------------------------------------------------------------------------|
-||--13--13--13--13--13--13--13--13--13--13--13--13--13--13--13--13--14--14---|
-||---------------------------------------------------------------------------|
-||--11--11--11--11--11--11--11--11--11--11--11--11--11--11--11--11--12--12---|
-||---------------------------------------------------------------------------|


--------------------------------------------------|---------------------------|
--------------------------------------------------|---------------------------|
-14--14--14--14--14-14--11-11-11-11-11-11-11-11---|--13--13--13--14--14--14---|
--------------------------------------------------|---------------------------|
-12--12--12--12--12--12--9--9--9--9--9--9--9--9---|--11--11--11--12--12--12---|
--------------------------------------------------|---------------------------|


-------------------------||---------------------------------------------------|
-------------------------||---------------------------------------------------|
-16--16--16--18--18--18--||---------------------------------------------------|
-------------------------||---------------------------------------------------|
-14--14--14--16--16--16--||---------------------------------------------------|
-------------------------||---------------------------------------------------|


-||----------------------------------------------------------------------||---|
-||----------------------------------------------------------------------||---|
-||----21----20-----13-----19-----16-----9----11-----13---14---13--------||---|
-||----------------------------------------------------------------------||---|
-||----19----18-----11-----16-----14-----7-----9-----11---12---11--------||---|
-||----------------------------------------------------------------------||---|
 Tremolo picking

-||--------------------------------------|---------------------------------|-|
-||--------------------------------------|---------------------------------|-|
-||------11------11--11-------11---13----|------11------11--11------11-----|-|
-||--14------14----------14--------------|--14------14----------14------14-|-|
-||--------------------------------------|---------------------------------|-|
-||--------------------------------------|---------------------------------|-|

-||----------------------------------------------------------------------||---|
-||----------------------------------------------------------------------||---|
-||----------------------------------------------------------------------||---|
-||----------------------------------------------------------------------||---|
-||----------------------------------------------------------------------||---|
-||-----0----0--0----0-----0--0----0----0----0----0--0-------------------||---|
             -  -          -  -         -         -  -
Suggest correction new What's this?
You can suggest a correction to this tab. Community and Mods will review your correction and vote to approve or reject it.
comments
We did not receive enough feedback on this tab! Please rate:
print report bad tab
1 2 3 4 5
guest
You may want to rate the tab now too:
select rating
Please do not post tabs as comments. Select "correction" instead!