Oops, an error
Loading. Please wait.

Am I Wrong Chords

version 2
version 2

Whole song

Interactive

by Envy
47,782 views 1 this week
2 commentsread comments
1 2 3 4 5
excellent!
x 7
add to favorites
launch autoscroll
font size
0
reset
transpose
0
reset
simplify chords
display chords
guitar tuner
Tab Pro tools
  • play this tab
  • loop segment
  • change instrument
  • show fretboard
  • metronome
×
Best way to learn
"Am I Wrong"
Autoscroll
slow
fast
+/-
esc
set tempo
stop
Contributor
Here are the chords:
    
    Cm        G#        Fm/C     A#/Bb
 
e|---8---------4---------8--------6--------------------|
B|---8---------4---------9--------6--------------------|
G|---8---------5---------10-------7--------------------|
D|---10--------6---------10-------8--------------------|
A|---10--------6---------8--------8--------------------|
E|---8---------4--------(8)-------6--------------------|

(For intro check the bottom!!)

I play it like this:

D - down strum

U- up strum

 
 
e|-------8---------4---------8--------6--------------------|
B|-------8---------4---------9--------6--------------------|
G|-------8---------5---------10-------7--------------------|
D|-------10--------6---------10-------8--------------------|
A|-----10--------6---------8--------8----------------------|
E|---8---------4--------(8)-------6------------------------|
 
[Verse 1: Vincent]
(Listen and you will get it, but it's pretty fast between Cm and G#  and Fm/c to A#/Bb)
     Cm  G#    Fm/C  A#/Bb     Cm  G#     Fm/C  A#/Bb
Am I wrong for thinking out the box from where I stay?
     Cm  G#    Fm/C  A#/Bb     Cm  G#     Fm/C  A#/Bb
Am I wrong for saying that I'll choose another way?
     Cm  G#    Fm/C  A#/Bb     Cm  G#     Fm/C  A#/Bb
I ain't trying to do what everybody else doing
     Cm  G#    Fm/C  A#/Bb     Cm  G#     Fm/C  A#/Bb
Just cause everybody doing what they all do
     Cm  G#    Fm/C  A#/Bb     Cm  G#     Fm/C  A#/Bb
If one thing I know, I'll fall but I'll grow
     Cm  G#    Fm/C  A#/Bb     Cm  G#     Fm/C  A#/Bb                               
(Repeat throughout the entire song!
I'm walking down this road of mine, this road that I call home

[Hook: Vincent]
So am I wrong for thinking that we could be something for real?
Now am I wrong for trying to reach the things that I can't see?
But that's just how I feel, that's just how I feel
That's just how I feel trying to reach the things that I can't see

[Verse 2: Nico]
Am I tripping for having a vision?
My prediction; I'mma be on the top of the world
Hope you, hope you don't look back, always do what you decide
Don't let them control your life, that's just how I feel
Fight for yours and don't let go, don't let them compare you, no
Don't worry, you're not alone, that's just how we feel

[Hook]

[Bridge: Nico]
If you tell me I'm wrong, wrong
I don't wanna be right, right
If you tell me I'm wrong, wrong
I don't wanna be right





 INTRO INTRO INTRO INTRO INTRO INTRO (could also be played throughout the 
song...kinda your decision)

e|----------------------|-------------------------------|
B|-----------------(4)---|--------------------6---------|
G|------------------5---|------10-----------7-----------|
D|-------10-------------|----10-----------8-------------|
A|-----10--------6------|--8------------8---------------|
E|---8---------4--------|-------------6-----------------|
   Ring. stop.  ring. stop. ring. stop. ring.                        (4) <- optional
comments
print report bad tab
2 comments total.
0 reply
tijsg wrote on March 30 2014, 05:40 pm

video tutorial:

https://www.youtube.com/watch?v=fayhXAQESqI

0 reply
harnit98 wrote on June 19 2014, 03:33 am

Cheers!!!!!!!!!!!!!!!

I want to post or [tab]
guest
You may want to rate the tab now too:
select rating
Please do not post tabs as comments. Select "correction" instead!