Oops, an error
Loading. Please wait.

Dont Let Go Tab

by Envy
446 views 1 this week
no commentswrite comment
1 2 3 4 5
please rate
add to favorites
launch autoscroll
font size
0
reset
how to read this tab
guitar tuner
Tab Pro tools
  • play this tab
  • loop segment
  • change instrument
  • show fretboard
  • metronome
×
Best way to learn
"Dont Let Go"
Autoscroll
slow
fast
+/-
esc
set tempo
stop
Contributor
Difficulty
novice
https://www.facebook.com/theenvymusic


-------------------------------------------------------------------------------
                             Don't Let Go - The Envy
-------------------------------------------------------------------------------
Tabbed by: MusicMan24
E-mail: a7t1r1@hotmail.com

This is a fairly new band, they only have 3 EPs out right now,
but they're definitely a band to watch. They were originally signed
by Gene Simmons I think, and have toured with KISS a few times.

This is a really great song, look it up if you haven't heard it.
There are a few parts I'm not 100% sure on, but it's very accurate/


Tuning: Standard



Intro x1
 
e|----------------------|
B|5---6---10~---3---5---|
G|----------------------|
D|----------------------| x2 (Fades in the 1st time)
A|3---5---8~----2---3---|
E|----------------------|

e|-----------------------------------------------|
B|-----------------------------------------------|
G|5555-7777-1010101010101010---------------------|
D|5555-7777-1010101010101010-55555555-77777777---| X2
A|3333-5555-8-8-8-8-8-8-8-8--55555555-77777777---|
E|---------------------------33333333-55555555---|


Verse x1

e|----------------------|
B|5---6---10~---3---5---|
G|----------------------|
D|----------------------| x2
A|3---5---8~----2---3---|
E|----------------------|

e|---------------------------------------|
B|---------------------------8~----10~---|
G|----5------7-----10~-----7--------9~---|
D|--5------7-----10------5----------7~---| x1 (Not too sure about this part)
A|3------5-----8-------------------------|
E|---------------------------------------|


Chorus x2


e|-----------------------------------------------|
B|-----------------------------------------------|
G|5555-7777-1010101010101010---------------------|
D|5555-7777-1010101010101010-55555555-77777777---|
A|3333-5555-8-8-8-8-8-8-8-8--55555555-77777777---|
E|---------------------------33333333-55555555---|


Verse x1
Chorus x2


Bridge 1 x1

e|--------------------------------------|
B|--------------------------------------|
G|55555555-77777777---------------------|
D|55555555-77777777-77777777-33333333---|
A|33333333-55555555-77777777-33333333---|
E|------------------55555555-11111111---|


Guitar Solo - Gtr. 1 - x1

e|------------------------------------------------------------|
B|5555-6666-1010101010101010-33333333-55555/131313-8-6-5-6~---|
G|------------------------------------------------------------|
D|------------------------------------------------------------|
A|------------------------------------------------------------|
E|------------------------------------------------------------|

e|----------------------------------|
B|/131313-8-6-5/17171717-15151515---|
G|----------------------------------|
D|----------------------------------|
A|----------------------------------|
E|----------------------------------|


Guitar Solo - Gtr. 2 - x1

e|-----------------------------------------------|
B|-----------------------------------------------|
G|5555-7777-1010101010101010---------------------|
D|5555-7777-1010101010101010-55555555-77777777---|
A|3333-5555-8-8-8-8-8-8-8-8--55555555-77777777---|
E|---------------------------33333333-55555555---|
  .... ....

e|-----------------------------------------------|
B|-----------------------------------------------|
G|5555-7777-1010101010101010---------------------|
D|5555-7777-1010101010101010-55555555-77777777---|
A|3333-5555-8-8-8-8-8-8-8-8--55555555-77777777---|
E|---------------------------33333333-44445555---|


Bridge 2

e|-------------------------------------------------------------------------|
B|-------------------------------------------------------------------------|
G|------------------5555555555555555-777777777777-9999-101010101010--------|
D|777777777777-9999-5555555555555555-777777777777-9999-101010101010-5555---|
A|777777777777-9999-3333333333333333-555555555555-7777-888888888888-5555---|
E|555555555555-7777-------------------------------------------------3333---|

e|-------------------------------------------------------------------------|
B|-------------------------------------------------------------------------|
G|------------------5555555555555555-777777777777-9999-10101010------------|
D|777777777777-9999-5555555555555555-777777777777-9999-10101010-55555555---|
A|777777777777-9999-3333333333333333-555555555555-7777-88888888-55555555---|
E|555555555555-7777---------------------------------------------33333333---|



Breakdown x3 /w Delay

e|----------------------|
B|5---6---10~---3---5---|
G|----------------------|
D|----------------------|
A|3---5---8~----2---3---|
E|----------------------|


Chorus x2


Outro

e|---------------------------------------------------------|
B|---------------------------------------------------------|
G|55555555-77777777----------101010101010101010101010------|
D|55555555-77777777-77777777-101010101010101010101010------|
A|33333333-55555555-77777777-888888888888888888888888------|
E|------------------55555555-------------------------------|


e|-----------------------------------------------------|
B|-----------------------------------------------------|
G|5555-7777-10101010--------------------5~--7~---------|
D|5555-7777-10101010-99999999-77777777--5~--7~--3~~~---|
A|3333-5555-88888888-99999999-77777777--3~--5~--3~~~---|
E|-------------------77777777-55555555----------1~~~---|



END



************************************

| /   slide up
| \   slide down
| h   hammer-on
| p   pull-off
| ~   vibrato
| +   harmonic
| x   Mute note
| b   Bend
| pb  Pre-bend
| br  Bend release
| pbr Pre-bend release
| brb Bend release bend

************************************
comments
We did not receive enough feedback on this tab! Please rate:
print report bad tab
1 2 3 4 5
I want to post or [tab]
guest
You may want to rate the tab now too:
select rating
Please do not post tabs as comments. Select "correction" instead!