Oops, an error
Loading. Please wait.

Gift Of Paralysis bass

version 1
version 1

Whole song

Interactive

1,527 views 1 this week
no commentswrite comment
1 2 3 4 5
1 last vote to show rating
add to favorites
×
Save as Personal and add changes to this tab that will be seen only by you. Learn more ›
×
You can save this tab as Personal to edit and correct it or add notes. All changes will be seen only by you. Learn more »
launch autoscroll
font size
0
reset
guitar tuner
edit
Autoscroll
slow
fast
+/-
esc
set tempo
stop
Drop D Tuning (DADG)
Verse
G------------------------------------------------|
D--4-4-7-9 -9----9-9-9------99-------------------|
A----------------------------7-7---7-9-9-9-12----|
D -----------------------------------------------|

Pre-Chorus (of surgery accusing me)
G---------------------------------------------|
D---------------------------------------------|
A----7-7-7-7-9-9-9-9-12--2-4-5-12-------------|         (play 2x)
D---------------------------------------------|


Im bouncin in and out ---- slide down on last note
G------------12-14-16--------------------------------12-14-16-----------|
D----12-14-16---------14-----12-12-14--------12-14-16-------------------|
A-10--------------------12-14------------10-------------------7---7-----|
D-----------------------------------------------------------------------|

Chorus
G--------------------------------------------------------------|
D--------------------------------------------------------------|
A--------------------------------------------------------------|
D-9---2---7---5---0-0-0--7-7---9---2---7---5---0-0-0--7-7-5----|


Verse
G---11------------------------------------------------------------------|
D -----7----------------------------------------------------------------|
A----------------------------7-7---7-9-9-9-12---------------------------|
D -------9-9---9-99-9---9-11-----------------------9---9---9-9-9-9------|

Verse
G------------------------------------|
D -----------------------------------|
A----------7-7---7-9-9-9-12----------|
D ----9-11---------------------------|

Pre-Chorus (and though he swore to me)
G------------------------------------|
D------------------------------------|
A----7-7-7-7-9-9-9-9-12--2-4-5-12----|       (play 2x)
D------------------------------------|

Im bouncin in and out ---- slide down on last note
G------------12-14-16------------------------16-14--14----------------------|
D----12-14-16---------14-----12-12-14-------------16--16--------------------|
A-10--------------------12-14------------10--------------- 14----7-7-7------|
D---------------------------------------------------------------------------|
E

Chorus
G--------------------------------------------------------------|
D--------------------------------------------------------------|
A--------------------------------------------------------------|
D-9---2---7---5---0-0-0--7-7---9---2---7---5---0-0-0--7-7-0----|

His neck..
G-----------------------------------------------------------------|
D-----------------------------------------------------------------|
A-2---0-------2-----0-0-0-0-0-0---0-0-----------------------------|
E---------5-------------------------------------------------------|

throwing punches
G------------------------------------------------------|
D------------------------------------------------------|
A--------------5-5--5-9-9--9-9-------------5-5--5-9-9--|(repeat a few times)
D--5-5--5-5-5-------------------5-5--5-5-5-------------|


and as the tide...
G--------------------------------------|
D--------------------------------------|
A---2----------------------------------|
D-----8--7-----2----5-----0-0-0--7-7---|

Chorus
G--------------------------------------------------------------|
D--------------------------------------------------------------|
A--------------------------------------------------------------|
D-9---2---7---5---0-0-0--7-7---9---2---7---5---0-0-0--7-7-0----|


throwing punches
G------------------------------------------------------|
D------------------------------------------------------|
A--------------5-5--5-9-9--9-9-------------5-5--5-9-9--|(repeat a few times)
D--5-5--5-5-5-------------------5-5--5-5-5-------------|

            
            
Suggest correction
Creating personal tab
Creating personal tab
You can edit any tab online and save it as your Personal.

You can edit, replace or remove any tab part or add personal notes – all changes will be seen only by you.

Personal tabs can be accessed anytime from any device, even offline.
Learn more »
Give kudos to tab author, rate the tab!
1 2 3 4 5
comments
print report bad tab
guest
You may want to rate the tab now too:
select rating
Wanna post a correction for this tab? Suggest correction