Oops, an error
Loading. Please wait.

Like I Do tab

version 2
version 2

Whole song

729 views 1 this week
no commentswrite comment
1 2 3 4 5
3 more votes to show rating
add to favorites
×
Save as Personal and add changes to this tab that will be seen only by you. Learn more ›
×
You can save this tab as Personal to edit and correct it or add notes. All changes will be seen only by you. Learn more »
launch autoscroll
font size
0
reset
how to read this tab
guitar tuner
edit
Autoscroll
slow
fast
+/-
esc
set tempo
stop
Author
-------------------------------------------------------------------------------
                             Like I Do by Envy On the Coast
-------------------------------------------------------------------------------
Tabbed by: Corey Moses
Email: corey_moses_12@hotmail.com

Tuning: Standard

Spent a few hours figuring this song out, not sure
if Brian plays it in standard tuning because
a lot of the album was done with an open tuning,
but it works out the way I play it. I don't have it
tabbed out perfectly for you, but this is what's
being played, just figure out where. Also use a little
bit of delay and it sounds pretty good. The ending is a
still sketchy because he plays around with harmonics a
lot and it was pretty difficult to tab exactly what he was
playing, but it's still pretty close and should give you
a good head start on figuring it out for yourself.

Intro/Verse:

e|-----12----10-------------------------------------------------------------|
B|----------------------------12-10~----------------------------------------|
G|--------12-------12-11-9-11---------12h14--12h14--------------------------|
D|------------------------------------12-----12-----------------------------|
A|--------------------------------------------------------------------------|
E|--------------------------------------------------------------------------|

e|-----12----10------------------10~----------------------------------------|
B|----------------------------12--------------------------------------------|
G|--------12-------12-11-9-11------------12\--------------------------------|
D|---------------------------------------12\--------------------------------|
A|--------------------------------------------------------------------------|
E|--------------------------------------------------------------------------|




Chorus:

e|--------------------------------------------------------------------------|
B|------12----12---------12----12-------------------------------------------|
G|---12----12----12---11----11----11--9~-----------9-11~--------------------|
D|-----------------------------------------7h9--12--------------------------|
A|--------------------------------------------------------------------------|
E|--------------------------------------------------------------------------|

(It's a little, teeny bit different the second time, listen carefully)
e|--------------------------------------------------------------------------|
B|------12----12----------12---12-------------------------------------------|
G|---12----12----12-11-11---11---11-9~--------------9-11~---12---12h14~-----|
D|------------------------------------------7h9--12------------9------------|
A|--------------------------------------------------------------------------|
E|--------------------------------------------------------------------------|





Outro: Harmonics mainly, couldn't figure it out precisely.
Shouldn't be too hard to figure it out for some people,
I'm just a little retarded about this stuff.

(Repeat a lot, with some variations, you decide how to play it)
e|-------------(12)-------------(12)----------------------------------------|
B|--(12)----(7)-------(12)---(7)----(12)------------------------------------|
G|------(12)-------------(12)-----------------------------------------------|
D|--------------------------------------------------------------------------|
A|--------------------------------------------------------------------------|
E|--------------------------------------------------------------------------|

(the 19 is kind of a ghost note,     
just slide up really quick to it)    (bend with some vibrato)

e|---17/19-12-15\-------------------------17~-14-14b------------------------|
B|--------------------------------------------------------------------------|
G|--------------------------------------------------------------------------|
D|--------------------------------------------------------------------------|
A|--------------------------------------------------------------------------|
E|--------------------------------------------------------------------------|
   (These are the 2 riffs between the harmonics)

The last riff that actually ends the song sounds like harmonics that
you can't really hit in standard tuning, which is why I feel 
that this song may be in an 
open tuning, maybe even in Open D. Anyway, the ending in standard 
tuning would be this:

e|--15-14-15-14------------|
B|--------------15\12------|
G|-------------------------|
D|-------------------------|
A|-------------------------|
E|-------------------------|

************************************

| /   slide up
| \   slide down
| h   hammer-on
| p   pull-off
| ~   vibrato
| +   harmonic
| x   Mute note
| b   Bend
| pb  Pre-bend
| br  Bend release
| pbr Pre-bend release
| brb Bend release bend

************************************

            
            
Suggest correction
Creating personal tab
Creating personal tab
You can edit any tab online and save it as your Personal.

You can edit, replace or remove any tab part or add personal notes – all changes will be seen only by you.

Personal tabs can be accessed anytime from any device, even offline.
Learn more »
Give kudos to tab author, rate the tab!
1 2 3 4 5
comments
print report bad tab
guest
You may want to rate the tab now too:
select rating
Wanna post a correction for this tab? Suggest correction