Oops, an error
Loading. Please wait.

Made Of Stone tab

version 1
version 1

Whole song

7,187 views 3 this week
2 commentsread comments
1 2 3 4 5
x 5
add to favorites
×
Save as Personal and add changes to this tab that will be seen only by you. Learn more ›
×
You can save this tab as Personal to edit and correct it or add notes. All changes will be seen only by you. Learn more »
launch autoscroll
font size
0
reset
how to read this tab
guitar tuner
edit
Autoscroll
slow
fast
+/-
esc
set tempo
stop
Author
Tuning: Standard

Intro/Verse:

There are little diddies that Ryan plays
like hitting little harmonics and open high strings,
just get a feel for it then try adding them, it's
pretty easy and fun, this is just basically what's
being played.

e|--------------------------------------------------------------------------|
B|--------------------------------------------------------------------------|
G|--------------------------------------------------------------------------|
D|------------0/0-----------------------------------------------------------|
A|--7h9--7----2/4-----------------------------------------------------------|
E|--0----0----3/5-----------------------------------------------------------|

Chorus: Thanks to Alexishxc1337 for the Chorus correction!

e|-0--0--0----0--0--0----------0--------------0--0------|
B|-0--0--0----0--1--0----1--3--0--------------1--0------|
G|-4--5--7----0--2--2----0--2--0--------------2--2------|
D|-4--5--7----9--2--1----2--4--2--------------2--1------|
A|-2--3--5/---7--0--2----3--0--2-----------0--0--2------|
E|----------0------------------0--0--2--3---------------|

Bridge: Same as the chorus basically, just use the
actual chords, not the power chords.

C - D - Em - Am - B7


OK, that's what I got for this song,
I tabbed it out from this video
http://www.youtube.com/watch?v=T5Na2eXf3jE&feature=related

Watch it and learn how to play it with this tab,
some parts I'm kinda not sure about, but they still
sound good.

            
            
Suggest correction
Creating personal tab
Creating personal tab
You can edit any tab online and save it as your Personal.

You can edit, replace or remove any tab part or add personal notes – all changes will be seen only by you.

Personal tabs can be accessed anytime from any device, even offline.
Learn more »
comments
print report bad tab
2 comments total.
+5 reply
Alexishxc1337 368 Apr 13, 2010 05:05 PM

Chorus should be:

e|-0--0--0-0--0--0---------0--------------0--0---|
B|-0--0--0-0--1--0---1--3--0--------------1--0---|
G|-4--5--7-0--2--2---0--2--0--------------2--2---|
D|-4--5--7-9--2--1---2--4--2--------------2--1---|
A|-2--3--5/7--0--2---3--0--2-----------0--0--2---|
E|---------0---------------0--0--2--3------------|

0 reply
godgivenfate 10 Mar 05, 2013 11:48 AM

agree with the good sir above

guest
You may want to rate the tab now too:
select rating
Wanna post a correction for this tab? Suggest correction