Oops, an error
Loading. Please wait.

Tell Them That Shes Not Scared bass

2,018 views 1 this week
2 commentsread comments
1 2 3 4 5
x 3
add to favorites
×
Save as Personal and add changes to this tab that will be seen only by you. Learn more ›
×
You can save this tab as Personal to edit and correct it or add notes. All changes will be seen only by you. Learn more »
launch autoscroll
font size
0
reset
guitar tuner
edit
Autoscroll
slow
fast
+/-
esc
set tempo
stop
Tabbed By : bassplayer27 / STEVE

Tuning:D
Guitar Intro
Chorus
G|-------------------------------------------------------------------------|
D|-------------------------------------------------------------------------|
A|-------------------------------------------------------------------------|
D|-1010-55-0-33x3333-1010-55h7-775h75777555/-33x3333-1010-55h7-775h75777555|

G|-----------------------------------------------------------------------------|
D|-----------------------------------------------------------------------------|
A|--------------------------------333----------------3-5-----------------------|
D|-333333-555555/19(x32)-000000-333----7-77/-77/1010-33---55xx5x5x5-7//--------|
                                          Pre Chorus
G|---------------|----------------------------------------------------------|
D|---------------|----------------------------------------------------------|
A|-----------333-|----------------------------------------------------------|
D|-000000-333----|-0~-7~-5~-0~-577777777-555--------------------------------|
Play Chorus Again

Post Chorus
G|-----------------------------------------------------------------------------|
D|-----------------------------------------------------------------------------|
A|-----------------------------------------------------------------------------|
D|-19(x64)/--------------------------------------------------------------------|

G|--------------------------------------------------------------------------|
D|--------------------------------------------------------------------------|
A|----------------------------333----------------3-5------------------------|
D|-333333-555555-7/-000000-333----7-77-77/1010-33----55xx5x5x5-7/-----------|

G|---------------|----------------------------------------------------------|
D|---------------|----------------------------------------------------------|
A|-----------333-|----------------------------------------------------------|
E|-000000-333----|-000000000000000077777777555555550000000000000000777777775|
Then, Play the chorus once and then the bass changes in the chorus. 2x
G|--------------------------------------------------------------------------|
D|--------------------------------------------------------------------------|
A|--------------------------------------------------------------------------|
D|-33-33-3-33-77-77-5-55-33-33-3-33-77-77-55-55-----------------------------|

G|--------------------------------------------------------------------------|
D|--------------------------------------------------------------------------|
A|--------------------------------------------------------------------------|
D|-7/19-7/1919-7-3-0-7-3-0-77777777333333330000000000000000-7777777733333333|

G|--------------------------------------------------------------------------|
D|--------------------------------------------------------------------------|
A|--------------------------------------------------------------------------|
D|000000000000000077777777333333330000000000000000777777733333333000000000000000|

G|--------------------------------------------------------------------------|
D|--------------------------------------------------------------------------|
A|--------------------------------------------------------------------------|
E|-55555--------------------------------------------------------------------|
Play chorus one more time then End with this
G|-----------------------------------------------------------------------------|
D|-----------------------------------------------------------------------------|
A|-----------------------------------------------------------------------------|
E|-19(x64)---------------------------------------------------------------------|

Hope everyone likes it, There was a few slides I didn't add in but there pretty easy and 
try to post more Envy bass songs I just have to get around to putting them up. Steve!!

            
            
Suggest correction
Creating personal tab
Creating personal tab
You can edit any tab online and save it as your Personal.

You can edit, replace or remove any tab part or add personal notes – all changes will be seen only by you.

Personal tabs can be accessed anytime from any device, even offline.
Learn more »
Give kudos to tab author, rate the tab!
1 2 3 4 5
comments
print report bad tab
2 comments total.
+1 reply
UnderOATHxThurs 267 Aug 11, 2008 10:15 AM

really nice tab, could you do more envy on the coast tabs? =]

+1 reply
bassplayer27 312 Aug 19, 2008 04:46 PM

Yup

guest
You may want to rate the tab now too:
select rating
Wanna post a correction for this tab? Suggest correction