Oops, an error
Loading. Please wait.

Aniron bass

by Enya
436 views 6 this week
no commentswrite comment
1 2 3 4 5
3 more votes to show rating
add to favorites
×
Save as Personal and add changes to this tab that will be seen only by you. Learn more ›
×
You can save this tab as Personal to edit and correct it or add notes. All changes will be seen only by you. Learn more »
launch autoscroll
font size
0
reset
guitar tuner
edit
Autoscroll
slow
fast
+/-
esc
set tempo
stop
Band; Enya
Song: Aniron
Album; Lord of the Rings, The Fellowship of the Ring Soundtrack.
Tabbed by: Turtle. ( ATL_ TERRESTRIAL guitarist.)

Bass
Tuning- DADG

Intro 
1-8------------------|-9-----------------|---------------|---------------|
2--------------------|-------------------|-1-------------|-2-------------|
3--------------------|-------------------|---------------|---------------|
4--------------------|-------------------|---------------|---------------|

Verse 
1--------------------|-------------------|---------------|---------------|
2-1------------------|-2-----------------|-1-------------|-2-------------|
3--------------------|-------------------|---------------|---------------|
4--------------------|-------------------|---------------|---------------|

1--------------------|-------------------|---------------|---------------|
2-1------------------|-2-----------------|-1-------------|-2-------------|
3--------------------|-------------------|---------------|---------------|
4--------------------|-------------------|---------------|---------------|

Note:
I do not have the entire tab. 
but I am sure that if you listen to the song, 
the entire thing is basically repeating itself untill the 
orchastra stops and the fute begins playing. 
Suggest correction
Creating personal tab
Creating personal tab
You can edit any tab online and save it as your Personal.

You can edit, replace or remove any tab part or add personal notes – all changes will be seen only by you.

Personal tabs can be accessed anytime from any device, even offline.
Learn more »
Give kudos to tab author, rate the tab!
1 2 3 4 5
comments
print report bad tab
guest
Wanna post a correction for this tab? Suggest correction