Oops, an error
Loading. Please wait.

May It Be tab

version 1
version 1

Whole song

Interactive

by Enya
37,296 views 99 this week
2 commentsread comments
1 2 3 4 5
x 22
add to favorites
×
Save as Personal and add changes to this tab that will be seen only by you. Learn more ›
×
You can save this tab as Personal to edit and correct it or add notes. All changes will be seen only by you. Learn more »
launch autoscroll
font size
0
reset
how to read this tab
guitar tuner
edit
Autoscroll
slow
fast
+/-
esc
set tempo
stop
Author
Unregistered
May it be an evening star, Shines down upon you
E|----------------------------------|
B|----------------------------------|
G|-------------2-4---4-2------------|
D|-0-2-4---2-4------------4-0-2-2---|
A|----------------------------------|
E|----------------------------------|

May it be when darkness falls, Your heart will be true
E|----------------------------------|
B|-------------------3--------------|
G|-------------2-4-----2------------|
D|-0-2-4---2-4------------4-0-2-2---|
A|----------------------------------|
E|----------------------------------|

You walk a lonely road, Oh! How far you are from home
E|--------------------------------------|
B|-----------3--------------------------|
G|---2-4--2-4--2-----2-4--2----------2--|
D|-4---------------4--------4-2--4-4----|
A|--------------------------------------|
E|--------------------------------------|

Mornie utúlië
E|--------------0-------|
B|----0-3----3----3---2-|
G|-2-------2------------|
D|----------------------|
A|----------------------|
E|----------------------|

Believe and you will find your way
E|-------------------------|
B|-2-3---------------------|
G|-------2-2-0---0----2-2--|
D|-------------4-----------|
A|-------------------------|
E|-------------------------|

Mornie alantië
E|--------------0-------|
B|----0-3----3----3---2-|
G|-2-------2------------|
D|----------------------|
A|----------------------|
E|----------------------|

A promise lives within you now
E|------------------------|
B|-2-3----0---------------|
G|------2---2-0-2--2--2---|
D|------------------------|
A|------------------------|
E|------------------------|


May it be the shadows call, Will fly away
E|----------------------------------|
B|----------------------------------|
G|-------------2-4---4-2------------|
D|-0-2-4---2-4------------4-0-2-2---|
A|----------------------------------|
E|----------------------------------|

May it be you journey on, To light the day
E|----------------------------------|
B|-------------------3--------------|
G|-------------2-4-----2------------|
D|-0-2-4---2-4------------4-0-2-2---|
A|----------------------------------|
E|----------------------------------|

When the night is overcome, You may rise to find the sun
E|--------------------------------------|
B|-----------3--------------------------|
G|---2-4--2-4--2-----2-4--2----------2--|
D|-4---------------4--------4-2--4-4----|
A|--------------------------------------|
E|--------------------------------------|

Mornie utúlië
E|--------------0-------|
B|----0-3----3----3---2-|
G|-2-------2------------|
D|----------------------|
A|----------------------|
E|----------------------|

Believe and you will find your way
E|-------------------------|
B|-2-3---------------------|
G|-------2-2-0---0----2-2--|
D|-------------4-----------|
A|-------------------------|
E|-------------------------|

Mornie alantië
E|--------------0-------|
B|----0-3----3----3---2-|
G|-2-------2------------|
D|----------------------|
A|----------------------|
E|----------------------|

A promise lives within you now
E|------------------------|
B|-2-3----0---------------|
G|------2---2-0-2--2--2---|
D|------------------------|
A|------------------------|
E|------------------------|

A promise lives within you now
E|--------------------------|
B|-2-3----0-----------------|
G|------2---2-0-2--2--0-2---|
D|--------------------------|
A|--------------------------|
E|--------------------------|

   *   *                *   *
E|-------------------------------|
B|-0---1-----0-1-0----1-0--------|
G|-----------------2--------0----|
D|-------------------------------|
A|-------------------------------|
E|-------------------------------|

   *   *                *
E|----------------------------|
B|-0---1-----0-1-0----1-0-----|
G|-----------------2----------|
D|----------------------------|
A|----------------------------|
E|----------------------------|

    *   *                 *
E|--------------------------|
B|--------------------------|
G|--3---4-----3-4-3-1--4--3-|
D|--------------------------|
A|--------------------------|
E|--------------------------|

   *  *  *   *   *                *
E|----------------------------------|
B|----------------------------------|
G|-----------3---4-----3-4-3-1--4-3-|
D|-0--1--3--------------------------|
A|----------------------------------|
E|----------------------------------|

        *         .
E|-----------------------|
B|-----------------------|
G|-----------------------|
D|--3-2-3------2--0------|
A|-----------------------|
E|-----------------------|

       *  *        *       *               *   *
E|------------------------------------------------|
B|-------------------------1--4--3----------------|
G|-----0--3----0-------0-3---------3--0---0-------|
D|-1-3-----------3-1--------------------3-----3---|
A|------------------------------------------------|
E|------------------------------------------------|

        *  *        *     * *   *    *
E|--------------------------------------|
B|------------------------1-1-----------|
G|------0--3----0-----0-3-----0---------|
D|--1-3-----------3-1-----------3----1--|
A|--------------------------------------|
E|--------------------------------------|



************************************

| .  Staccato

************************************

            
            
Suggest correction
Creating personal tab
Creating personal tab
You can edit any tab online and save it as your Personal.

You can edit, replace or remove any tab part or add personal notes – all changes will be seen only by you.

Personal tabs can be accessed anytime from any device, even offline.
Learn more »
comments
print report bad tab
2 comments total.
0 reply
St.Citrus 20 Oct 15, 2006 12:37 PM

A totaly awesome vocal tab man, spot on!!!

0 reply
steelstring18 20 May 14, 2013 11:30 AM

perfect

but try adding some bass in the enya song

guest
Wanna post a correction for this tab? Suggest correction