Oops, an error
Loading. Please wait.
We have an official Only Time tab made by UG professional guitarists. Check out the tab »
×
by Enya
49,987 views 78 this week
2 commentsread comments
1 2 3 4 5
x 17
add to favorites
×
Save as Personal and add changes to this tab that will be seen only by you. Learn more ›
×
You can save this tab as Personal to edit and correct it or add notes. All changes will be seen only by you. Learn more »
launch autoscroll
font size
0
reset
how to read this tab
guitar tuner
edit
Autoscroll
slow
fast
+/-
esc
set tempo
stop
Author
Difficulty
Only Time
Enya


e||--------------2-----------|--------------2-----------|
B||--------3-----3-----3-----|--------3-----3-----3-----|
G||-----2-----2-----2-----2--|-----2-----2-----2-----2--|
D||--0-----------------------|--0-----------------------|
A||--------------------------|--------------------------|
E||--------------------------|--------------------------|

e|--------------2-----------|--------------2-----------|
B|--------3-----3-----3-----|--------3-----3-----3-----|
G|-----2-----2-----2-----2--|-----2-----2-----2-----2--|
D|--0-----------------------|--0-----------------------|
A|--------------------------|--------------------------|
E|--------------------------|--------------------------|

e|--------------------0-----|--------------------0-----|
B|--3-----3-----3--------2--|--2--3--3--------------2--|
G|-----2-----2-----2--------|-----------4-----4--------|
D|--0-----------------------|--------------4-----------|
A|--------------0-----------|--2-----------------------|
E|--------------------------|--------------------------|

e|--------------------0-----|--------------------------|
B|--2--3--3--------------2--|-----3--------------------|
G|-----------0-----0--------|--------2--------------2--|
D|--------------0-----------|--0--------4-----4--0-----|
A|--------------------------|--------------5-----------|
E|--3-----------------------|--------------------------|

e|--------------------0-----|--------------------0-----|
B|--3-----3-----3--------2--|--3-----3--------------2--|
G|-----2-----2-----2--------|-----4-----4-----4--------|
D|--0-----------------------|--------------4-----------|
A|--------------0-----------|--2-----------------------|
E|--------------------------|--------------------------|

e|--------------------0-----|--------------------------|
B|--3-----3--------------2--|-----3--------------------|
G|-----0-----0-----0--------|--------2-----------2-----|
D|--------------0-----------|--0--------4-----4-----4--|
A|--------------------------|--------------5-----------|
E|--3-----------------------|--------------------------|

e|--------------2-----------|--------0--2--------------|
B|--------3-----------3-----|-----3--------------------|
G|-----2-----2-----2-----2--|--4-----------------4-----|
D|--0-----------------------|-----------------4-----4--|
A|--------------------------|--2-----------------------|
E|--------------------------|--------------2-----------|

e|--------0-----------------|--0-----------0--------2--|
B|--0--3-----3--------------|--------2-----------2-----|
G|--------------------0-----|-----2-----2-----2--------|
D|-----------------0-----0--|--------------------------|
A|--------------------------|--0-----------0-----------|
E|--3-----------3-----------|--------------------------|

e|--------------2-----------|--------------------7----|--0--2--0-----------------|
B|-----------3-----3--------|-----------7--10---------|--0--------3--------------|
G|--------4-----------4-----|-----7--9----------------|--0-----------------0-----|
D|-----4-----------------4--|--9----------------------|-----------------0-----0--|
A|--2-----------------------|-------------------------|--------------------------|
E|--------------------------|--7-----------7----------|--3-----------3-----------|

e|--0-----0--------0-----2--|--0-----------------0-----|
B|--------------2-----3-----|--------2--------------2--|
G|-----2-----2--------------|-----------2--------------|
D|--------------------------|-----2-----------2--------|
A|--0-----------------------|--0-----------0-----------|
E|--------------------------|--------------------------|

e|--------------------0-----|--------------------0-----|
B|--3-----3-----3--------2--|--3-----3--------------2--|
G|-----2-----2-----2--------|-----4-----4-----4--------|
D|--0-----------------------|--------------4-----------|
A|--------------0-----------|--2-----------------------|
E|--------------------------|--------------------------|

e|--------------------0-----|--------------------------|
B|--3-----3--------------2--|-----3--------------------|
G|-----0-----0-----0--------|--------2-----------2-----|
D|--------------0-----------|--0--------4-----4-----4--|
A|--------------------------|--------------5-----------|
E|--3-----------------------|--------------------------|

e|--------------------0-----|--------------------0-----|
B|--3-----3-----3--------2--|--3-----3--------------2--|
G|-----2-----2-----2--------|-----4-----4-----4--------|
D|--0-----------------------|--------------4-----------|
A|--------------0-----------|--2-----------------------|
E|--------------------------|--------------------------|

e|--------------------0-----|--------------------------|
B|--3-----3--------------2--|-----3--------------------|
G|-----0-----0-----0--------|--------2-----------2-----|
D|--------------0-----------|--0--------4-----4-----4--|
A|--------------------------|--------------5-----------|
E|--3-----------------------|--------------------------|

e|--------------2-----------|--------0--2--2-----------|
B|--------3-----------3-----|-----3-----------3--------|
G|-----2-----2-----2-----2--|--------------------4-----|
D|--0-----------------------|-----------------------4--|
A|--------------------------|--2-----------2-----------|
E|--------------------------|--------------------------|

e|--------0-----------------|--0-----------0-----------|
B|--0--3-----3--3-----------|--------2-----------2-----|
G|--------------------0-----|-----2-----2-----2-----2--|
D|-----------------0-----0--|--------------------------|
A|--------------------------|--0-----------0-----------|
E|--3-----------3-----------|--------------------------|

e|--2-----------2-----------|--------------------7----|--0--2--0-----------------|
B|--------3-----------3-----|-----------7--10---------|--0--------3--------------|
G|-----4-----4-----4-----4--|-----7--9----------------|--0-----------------0-----|
D|--------------------------|--9----------------------|-----------------0-----0--|
A|--2-----------2-----------|-------------------------|--------------------------|
E|--------------------------|--7-----------7----------|--3-----------3-----------|

e|--0-----0--------0-----2--|--0-----------------------|
B|-----------2--------3-----|--------------------------|
G|-----2--------------------|--------2-----2-----------|
D|--------------------------|-----2-----2-----------2--|
A|--0-----------0-----------|--0-----------------0-----|
E|--------------------------|-----------------0--------|

e|--------------------0-----|--------------------0-----|
B|--3-----3-----3--------2--|--3-----3--------------2--|
G|-----2-----2-----2--------|-----4-----4-----4--------|
D|--0-----------------------|--------------4-----------|
A|--------------0-----------|--2-----------------------|
E|--------------------------|--------------------------|

e|--------------------0-----|--------------------------|
B|--3-----3--------------2--|-----3--------------------|
G|-----0-----0-----0--------|--------2--------------2--|
D|--------------0-----------|--0--------4-----4--0-----|
A|--------------------------|--------------5-----------|
E|--3-----------------------|--------------------------|

e|--------------------0-----|--------------------0-----|
B|--3-----3-----3--------2--|--3-----3--------------2--|
G|-----2-----2-----2--------|-----4-----4-----4--------|
D|--0-----------------------|--------------4-----------|
A|--------------0-----------|--2-----------------------|
E|--------------------------|--------------------------|

e|--------------------0-----|--------------------------|
B|--3-----3--------------2--|-----3--------------------|
G|-----0-----0-----0--------|--------2-----------2-----|
D|--------------0-----------|--0--------4-----4-----4--|
A|--------------------------|--------------5-----------|
E|--3-----------------------|--------------------------|

e|--------------------0-----|--------------------------|
B|--3-----3--------------2--|-----3--------------------|
G|-----0-----0-----0--------|--------2-----------2-----|
D|--------------0-----------|--0--------4-----4-----4--|
A|--------------------------|--------------5-----------|
E|--3-----------------------|--------------------------|

e|--------------2-----------|--1-----0--1-----1--|--------------------|
B|--------3-----------3-----|-----1--------3-----|--1-----------------|
G|-----2-----2-----2-----2--|--------------------|-----------2--------|
D|--0-----------------------|--------------------|--------3-----3-----|
A|--------------------------|--------------------|-----3-----------3--|
E|--------------------------|--1-----------------|--1-----------------|

e|-----1--3--0-----1--|--------------------|-----1--0--1-----1--|
B|--1-----------3-----|--1-----------------|--1-----------3-----|
G|--------------------|-----------2--------|--------------------|
D|--------------------|--------3-----3-----|--------------------|
A|--------------------|-----3-----------3--|--------------------|
E|--1-----------------|--1-----------------|--1-----------------|

e|--------------------|-----1--3--0-----1--0-----|-----2--0-----------------|
B|--1-----------------|--1-----------3--------2--|--3--------3--2--0--------|
G|-----------2--------|-----------------------2--|--2-----------------2--0--|
D|--------3-----3-----|--------------------------|--0-----------------------|
A|-----3-----------3--|--------------------0-----|--------------------------|
E|--1-----------------|--1-----------------------|--------------------------|

e|--------------2-----------|--------------------0-----|
B|--------3-----------3-----|--3-----3-----3--------2--|
G|-----2-----2-----2-----2--|-----2-----2-----2--------|
D|--4-----------------------|--0-----------------------|
A|--5-----------------------|--------------0-----------|
E|--------------------------|--------------------------|

e|--------------------0-----|--------------------0-----|
B|--3-----3--------------2--|--3-----3--------------2--|
G|-----4-----4-----4--------|-----0-----0-----0--------|
D|--------------4-----------|--------------0-----------|
A|--2-----------------------|--------------------------|
E|--------------------------|--3-----------------------|

e|--------------------------|--------------------0-----|
B|-----3--------------------|--3-----3-----3--------2--|
G|--------2--------------2--|-----2-----2-----2--------|
D|--0--------4-----4--0-----|--0-----------------------|
A|--------------5-----------|--------------0-----------|
E|--------------------------|--------------------------|

e|--------------------0-----|--------------------0-----|
B|--3-----3--------------2--|--3-----3--------------2--|
G|-----4-----4-----4--------|-----0-----0-----0--------|
D|--------------4-----------|--------------0-----------|
A|--2-----------------------|--------------------------|
E|--------------------------|--3-----------------------|

e|--------------------------|--------------------0-----|
B|-----3-----------------3--|--3-----3--------------2--|
G|--------2-----------2-----|-----0-----0-----0--------|
D|--0--------4-----4--------|--------------0-----------|
A|--------------5-----------|--------------------------|
E|--------------------------|--3-----------------------|

e|--------------------------|--------------------0-----|
B|-----3-----------------3--|--3-----3--------------2--|
G|--------2-----------2-----|-----0-----0-----0--------|
D|--0--------4-----4--------|--------------0-----------|
A|--------------5-----------|--------------------------|
E|--------------------------|--3-----------------------|

e|--------------------------|--------------2-----------|
B|-----3-----------------3--|--------3-----------3-----|
G|--------2-----------2-----|-----2-----2-----2-----2--|
D|--0--------4-----4--------|--0-----------0-----------|
A|--------------5-----------|--------------------------|
E|--------------------------|--------------------------|

e|--------------5-----------|-----------------10--------------|
B|--------7-----------7-----|---------10--------------10------|
G|-----7-----7-----7-----7--|-----11------11------11------11--|
D|--0-----------0-----------|--0--------------0---------------|
A|--------------------------|---------------------------------|
E|--------------------------|---------------------------------|

e|-------------------||
B|-------------------||
G|-------------------||
D|--0----------------||
A|--5----------------||
E|-------------------||
Suggest correction
Creating personal tab
Creating personal tab
You can edit any tab online and save it as your Personal.

You can edit, replace or remove any tab part or add personal notes – all changes will be seen only by you.

Personal tabs can be accessed anytime from any device, even offline.
Learn more »
comments
print report bad tab
2 comments total.
0 reply
oXygEn_WaSteR 308 Nov 15, 2006 11:55 AM

love it... great job... whoever rated this before me is a dumbass... five stars from me =]

0 reply
oXygEn_WaSteR 308 Nov 15, 2006 11:56 AM

put the capo on the first fret though... you forgot that part... unless i'm just stupid and i didn't see it... lol...

guest
You may want to rate the tab now too:
select rating
Wanna post a correction for this tab? Suggest correction