Oops, an error
Loading. Please wait.

Sensorium Bass Tab

version 1
version 1

Whole song

Interactive

6,613 views 3 this week
no commentswrite comment
1 2 3 4 5
please rate
add to favorites
launch autoscroll
font size
0
reset
guitar tuner
Autoscroll
slow
fast
+/-
esc
set tempo
stop
Help us to improve Ultimate-Guitar.com Take our survey!
×
Author
Band: Epica
Song: Sensorium
Tuning: Standard (GDAE)

Intro 
G|------------------------------------------------------|
D|------------------------------------------------------|
A|---------------------------3-33-33-33-3-2-22-22-22-2--|
E|--0-00-00-00-00-00-00-00-0----------------------------|
	                                                    X2
G|-------------------------------------------------------|
D|-------------------------------------------------------|
A|-----------------------------------------2-22-22-22-2--|
E|--0-00-00-00-2-3-33-33-33-3-5-55-55-55-5---------------|

G|-----|
D|-----|
A|-----|
E|--0--|

Verse
G|------------------------------------------------------|
D|------------------------------------------------------|
A|------------------------------------------------------|
E|--0-0-00-00-00000-3-00-00-00-00000-5-55-55-55-55555---|

G|------------------------------------------------------|
D|------------------------------------------------------|
A|------------------------------------------------------|
E|--0-0-00-00-00000-5-55-55-55-55555-0-0-00-00----------|

Chorus
G|-------------------|
D|-------------------|
A|--2-5------3-------|
E|------2--0---------|

G|-------------------|
D|-------------------|
A|--2-1--------------|
E|------2-3-0-2------|

G|--------------------------------------------|
D|--------------------------------------------|
A|--2222222-4-5555555-------------------------|
E|--------------------33333333-22222222-------|

Verse x1
Chorus x1

Then
G|--------------------------------------------|
D|--------------------------------------------|
A|--2222222-4---------------------------------|
E|------------33333333-00000000-22222222------|

G|--------------------------------------------|
D|--------------------------------------------|
A|--2222222-4-5555555-------------------------|
E|--------------------33333333-22222222-------|

Bridge
G|--------------------------------------------|
D|--------------------------------------------|
A|---------------------------00000------------|
E|--00000-1-33333-43-22222-3------------------|

G|--------------------------------------------|
D|--------------------------------------------|
A|--------------------------------------------|
E|--21-00000-1-33333-43-22222-3-00000---------|

G|------------------------------------------------|
D|------------------------------------------------|
A|------------------------------------------------|
E|--555555-111111-555555-111111111-555555-111111--|

G|-----------------------|
D|-----------------------|
A|-----------------------|
E|--333333-222222-1------|

G|--------------------------------------------------|
D|--------------------------------------------------| x2
A|--------------------------------------------------|
E|--5-5-5-5-5-5-5-5-5-5-5-5-5-5-5-5-5-5-5-4-3-1111--|

G|-----------------------|
D|-----------------------|
A|--5555-----------------|
E|-------0000------------|

G|--------------------------------------------------|
D|--------------------------------------------------| x2
A|--------------------------------------------------|
E|--5-5-5-5-5-5-5-5-5-5-5-5-5-5-5-5-5-5-5-4-3-1111--|

G|--------------------------------|
D|--------------------------------| 
A|--5555-3333------------2-222-3--|
E|------------0-0000-000----------|

G|------------------------------------------------------|
D|------------------------------------------------------| 
A|---------------------------3-33-33-33-3-2-22-22-22-2--|
E|--0-00-00-00-00-00-00-00-0----------------------------|

G|---------------------------------------------|
D|---------------------------------------------| 
A|--------------------------------------22-22--|
E|--0-00-00-00-23-33-33-33-3-5-55-55-55--------|

Chorus 2
G|-----------------------------------------------|
D|-----------------------------------------------| 
A|--2-5------3--2-4-5-5555555--------------------|
E|------2--0------------------33333333-22222222--|

Then x1

End
G|-------------|
D|-------------| 
A|--22-22-2-2--|
E|-------------|
Suggest correction
Give kudos to tab author, rate the tab!
1 2 3 4 5
comments
print report bad tab
guest
You may want to rate the tab now too:
select rating
Please do not post tabs as comments. Select "correction" instead!