Oops, an error
Loading. Please wait.

Tahroja Paperilla tab

version 1
version 1

Whole song

  • Tabber for two guitars, easy to follow, lyrics included.

Interactive

157 views 15 this week
no commentswrite comment
1 2 3 4 5
3 more votes to show rating
add to favorites
×
Save as Personal and add changes to this tab that will be seen only by you. Learn more ›
×
You can save this tab as Personal to edit and correct it or add notes. All changes will be seen only by you. Learn more »
launch autoscroll
font size
0
reset
how to read this tab
guitar tuner
edit
Autoscroll
slow
fast
+/-
esc
set tempo
stop
About this tab version
Tabber for two guitars, easy to follow, lyrics included. Was this info helpful? Yes No
Toinen soolo otettu täältä: http://tane.arkku.net/tab/tahrojapaperilla.txt

[Intro]
   1 + 2 + 3 + 4 +   1 + 2 + 3 + 4 +   1 + 2 + 3 + 4 +   1 + 2 + 3 + 4 +
   Em
e|-----------------|-----------------|-----------------|-----------------|
B|-----------------|-----------------|-----------------|-----------------|
G|-0-----0---------|-0-----0---------|-0-----0---------|-0-----0---------|   Guitar 1
D|-2-----2---------|-2-----2---------|-2-----2---------|-2-----2---------|
A|-2-----2---------|-2-----2---------|-2-----2---------|-2-----2---------|
E|-0-----0---------|-0-----0---------|-0-----0---------|-0-----0---------|
 |                                                                       |
e|-----------------|-----------------|-----------------|-----------------|
B|-0-0-0-0-0-0-0-0-|-0-0-0-0-0-0-0-0-|-0-0-0-0-0-0-0-0-|-0-0-0-0-0-0-0-0-|
G|-0-0-0-0-0-0-0-0-|-0-0-0-0-0-0-0-0-|-0-0-0-0-0-0-0-0-|-0-0-0-0-0-0-0-0-|   Guitar 2
D|-2-2-2-2-2-2-2-2-|-2-2-2-2-2-2-2-2-|-2-2-2-2-2-2-2-2-|-2-2-2-2-2-2-2-2-|
A|-----------------|-----------------|-----------------|-----------------|
E|-----------------|-----------------|-----------------|-----------------|


[Verse 1]
   1 + 2 + 3 + 4 +   1 + 2 + 3 + 4 +   1 + 2 + 3 + 4 +   1 + 2 + 3 + 4 +
   Em                A                 F#                B7
e|-----------------|-----------------|-----------------|-----------------|
B|-----------------|-----------------|-----------------|-----------------|
G|-0-----0-----0---|-2-----2-----0---|-3-----3---------|-2-----2---------|   Guitar 1
D|-2-----2-----0---|-2-----2-----0---|-4-----4---------|-1-----1---------|
A|-2-----2-----2---|-0-----0-----2---|-4-----4---------|-2-----2---------|
E|-0-----0-----3---|-------------3---|-2-----2---------|-----------------|
 | Tiedän että on yö                    kun saavut ...  pimeään          |
 |  Yksinäisyys lyö                     sanomatta      nimeään           |  (x2)
 |                                                                       |
e|-----------------|-----------------|-----------------|-----------------|
B|-0-0-0-0-0-0-0-0-|-2-2-2-2-2-2-2-2-|-3-3-3-3-3-3-3-3-|-0-0-0-0-0-0-0-0-|
G|-0-0-0-0-0-0-0-0-|-2-2-2-2-2-2-2-2-|-4-4-4-4-4-4-4-4-|-----------------|   Guitar 2
D|-2-2-2-2-2-2-2-2-|-2-2-2-2-2-2-2-2-|-4-4-4-4-4-4-4-4-|-4-4-4-4-4-4-4-4-|
A|-----------------|-----------------|-----------------|-6-6-6-6-6-6-6-6-|
E|-----------------|-----------------|-----------------|-----------------|


   1 + 2 + 3 + 4 +   1 + 2 + 3 + 4 +   1 + 2 + 3 + 4 +   1 + 2 + 3 + 4 +
   C     D           G     Em          C                 B7
e|-------2---------|-----------------|-----------------|-----------------|
B|-------3---------|-----------------|-----------------|-----------------|
G|-0-----2---------|-0-----0---------|-0-----0---------|-2-----2---------|   Guitar 1
D|-2-----0---------|-0-----2---------|-2-----2---------|-1-----1---------|
A|-3---------------|-2-----2---------|-3-----3---------|-2-----2---------|
E|-----------------|-3-----0---------|-----------------|-----------------|
 |  Kun..kirjeeni   kaiun kuulet      tahrat näet       joita sateeksi   |
 |                                                                       |
e|-----------------|-----------------|-----------------|-----------------|
B|-1-1-1-3-3-3-3-3-|-0-0-0-0-0-0-0-0-|-1-1-1-1-1-1-1-1-|-0-0-0-0-0-0-0-0-|
G|-0-0-0-2-2-2-2-2-|-0-0-0-0-0-0-0-0-|-0-0-0-0-0-0-0-0-|-----------------|   Guitar 2
D|-2-2-2-4-4-4-4-4-|-0-0-0-2-2-2-2-2-|-2-2-2-2-2-2-2-2-|-4-4-4-4-4-4-4-4-|
A|-----------------|-----------------|-----------------|-6-6-6-6-6-6-6-6-|
E|-----------------|-----------------|-----------------|-----------------|


   1 + 2 + 3 + 4 +   1 + 2 + 3 + 4 +
   Em
e|-----------------|-----------------|
B|-----------------|-----------------|
G|-0-----0---------|-0-----0---------| Guitar 1
D|-2-----2---------|-2-----2---------|
A|-2-----2---------|-2-----2---------|
E|-0-----0---------|-0-----0---------|
 | luulet                            |
 |                                   |
 |(Guitar 2)                         |
e|-----------------|-----------------|
B|-0-0-0-0-0-0-0-0-|-0-0-0-0-0-0-0-0-|
G|-0-0-0-0-0-0-0-0-|-0-0-0-0-0-0-0-0-| Guitar 2
D|-2-2-2-2-2-2-2-2-|-2-2-2-2-2-2-2-2-|
A|-----------------|-----------------|
E|-----------------|-----------------|


[Verse 2]
   1 + 2 + 3 + 4 +   1 + 2 + 3 + 4 +   1 + 2 + 3 + 4 +   1 + 2 + 3 + 4 +
   Em                A                 F#                B7
e|-----------------|-----------------|-----------------|-----------------|
B|-----------------|-----------------|-----------------|-----------------|
G|-0-----0-----0---|-2-----2-----0---|-3-----3---------|-2-----2---------|   Guitar 1
D|-2-----2-----0---|-2-----2-----0---|-4-----4---------|-1-----1---------|
A|-2-----2-----2---|-0-----0-----2---|-4-----4---------|-2-----2---------|
E|-0-----0-----3---|-------------3---|-2-----2---------|-----------------|
 |  Kuljen ulkona   valossa           kasvoillani voin  tuntea tuulen    |
 |  Ei ... tuntunut talossa              johon palaa en koskaan, luulen  |  (x2)
 |                                                                       |
e|-----------------|-----------------|-----------------|-----------------|
B|-0-0-0-0-0-0-0-0-|-2-2-2-2-2-2-2-2-|-3-3-3-3-3-3-3-3-|-0-0-0-0-0-0-0-0-|
G|-0-0-0-0-0-0-0-0-|-2-2-2-2-2-2-2-2-|-4-4-4-4-4-4-4-4-|-----------------|   Guitar 2
D|-2-2-2-2-2-2-2-2-|-2-2-2-2-2-2-2-2-|-4-4-4-4-4-4-4-4-|-4-4-4-4-4-4-4-4-|
A|-----------------|-----------------|-----------------|-6-6-6-6-6-6-6-6-|
E|-----------------|-----------------|-----------------|-----------------|


   1 + 2 + 3 + 4 +   1 + 2 + 3 + 4 +   1 + 2 + 3 + 4 +   1 + 2 + 3 + 4 +
   C     D           G     Em          C
e|-------2---------|-----------------|-----------------|-----------------|
B|-------3---------|-----------------|-1-----1---------|-1-----1---------|
G|-0-----2---------|-0-----0---------|-0-----0---------|-0-----0---------|   Guitar 1
D|-2-----0---------|-0-----2---------|-2-----2---------|-2-----2---------|
A|-3---------------|-2-----2---------|-3-----3---------|-3-----3---------|
E|-----------------|-3-----0---------|-----------------|-----------------|
 |  En...menossa     minnekään     Ei missään tulee     minun luokseni   |
 |                                                                       |
e|-----------------|-----------------|-----------------|-----------------|
B|-1-1-1-3-3-3-3-3-|-0-0-0-0-0-0-0-0-|-1-1-1-1-1-1-1-1-|-1-1-1-1-1-1-1-1-|
G|-0-0-0-2-2-2-2-2-|-0-0-0-0-0-0-0-0-|-0-0-0-0-0-0-0-0-|-0-0-0-0-0-0-0-0-|   Guitar 2
D|-2-2-2-4-4-4-4-4-|-0-0-0-2-2-2-2-2-|-2-2-2-2-2-2-2-2-|-2-2-2-2-2-2-2-2-|
A|-----------------|-----------------|-----------------|-----------------|
E|-----------------|-----------------|-----------------|-----------------|

   1 + 2 + 3 + 4 +   1 + 2 + 3 + 4 +
   B7
e|-----------------|-----------------|
B|-----------------|-----------------|
G|-2-----2---------|-2-----2---------|   Guitar 1
D|-1-----1---------|-1-----1---------|
A|-2-----2---------|-2-----2---------|
E|-----------------|-----------------|
 |            Minun vuokseni         |
 |                                   |
e|-----------------|-----------------|
B|-0-0-0-0-0-0-0-0-|-0-0-0-0-0-0-0-0-|
G|-----------------|-----------------|   Guitar 2
D|-4-4-4-4-4-4-4-4-|-4-4-4-4-4-4-4-4-|
A|-6-6-6-6-6-6-6-6-|-6-6-6-6-6-6-6-6-|
E|-----------------|-----------------|


[Chorus]
   1 + 2 + 3 + 4 +   1 + 2 + 3 + 4 +   1 + 2 + 3 + 4 +   1 + 2 + 3 + 4 +
   C                 D                 G                 Em
e|-0---0-0-0-0-0-0-|-2---2-2-2-2-2-2-|-3---3-3-3-3-3-3-|-0---0-0-0-0-0-0-|
B|-1---1-1-1-1-1-1-|-3---3-3-3-3-3-3-|-0---0-0-0-0-0-0-|-0---0-0-0-0-0-0-|
G|-0---0-0-0-0-0-0-|-2---2-2-2-2-2-2-|-0---0-0-0-0-0-0-|-0---0-0-0-0-0-0-|
D|-2---2-2-2-2-2-2-|-0---0-0-0-0-0-0-|-0---0-0-0-0-0-0-|-2---2-2-2-2-2-2-| \
A|-3---3-3-3-3-3-3-|-----------------|-2---2-2-2-2-2-2-|-2---2-2-2-2-2-2-|  \
E|-----------------|-----------------|-3---3-3-3-3-3-3-|-0---0-0-0-0-0-0-|   \
                                                                              \  (x2) Guitar 1
   1 + 2 + 3 + 4 +   1 + 2 + 3 + 4 +   1 + 2 + 3 + 4 +   1 + 2 + 3 + 4 +      /
   C                 B7                Em                D                   /
e|-0---0-0-0-0-0-0-|-2---2-2-2-2-2-2-|-0---0-0-0-0-0-0-|-2---2-2-2-2-2-2-|  /
B|-1---1-1-1-1-1-1-|-2---2-2-2-2-2-2-|-0---0-0-0-0-0-0-|-3---3-3-3-3-3-3-| /
G|-0---0-0-0-0-0-0-|-2---2-2-2-2-2-2-|-0---0-0-0-0-0-0-|-2---2-2-2-2-2-2-|
D|-2---2-2-2-2-2-2-|-1---1-1-1-1-1-1-|-2---2-2-2-2-2-2-|-0---0-0-0-0-0-0-|
A|-3---3-3-3-3-3-3-|-2---2-2-2-2-2-2-|-2---2-2-2-2-2-2-|-----------------|
E|-----------------|-----------------|-0---0-0-0-0-0-0-|-----------------|


   1 + 2 + 3 + 4 +   1 + 2 + 3 + 4 +   1 + 2 + 3 + 4 +   1 + 2 + 3 + 4 +
   C                 D                 G                 Em
e|-----------------|-----------------|-----------------|-----------------|
B|-----------------|-----------------|-0-------0-------|-0-------0-------|
G|-0-------0-------|-2-------2-------|-0-------0-------|-0-------0-------|
D|-2-------2-------|-4-------4-------|-0-------0-------|-2-------2-------| \
A|-3-------3-------|-5-------5-------|-----------------|-----------------|  \
E|-----------------|-----------------|-----------------|-----------------|   \
                                                                              \  (x2) Guitar 2
   1 + 2 + 3 + 4 +   1 + 2 + 3 + 4 +   1 + 2 + 3 + 4 +   1 + 2 + 3 + 4 +      /
   C                 B7                Em                D                   /
e|-----------------|-----------------|-----------------|-----------------|  /
B|-----------------|-----------------|-0-------0-------|-----------------| /
G|-0-------0-------|-----------------|-0-------0-------|-2-------2-------|
D|-2-------2-------|-4-------4-------|-2-------2-------|-4-------4-------|
A|-3-------3-------|-6-------6-------|-----------------|-5-------5-------|
E|-----------------|-7-------7-------|-----------------|-----------------|

     C                  D                  G            Em
Vain tahroja paperilla, älä siis suutu, ei niistä asiat miksikään muutu
   C                   B7             Em                  D
Ei se, että meillä oli retkemme, eikä se, että meillä oli hetkemme
    C              D                   G                  Em
Voi tuuli kylmästi kutittaa selkää, se eteenpäin työntää, älä siis pelkää
    C                  B7               Em        D
Älä huoli siitä, sillä meillä oli hetkemme, a - aa


   1 + 2 + 3 + 4 +   1 + 2 + 3 + 4 +   1 + 2 + 3 + 4 +
   C                 B7
e|-0---0-0-0-0-0-0-|-2---2-2-2-2-2-2-|-2---2-2-2-2-2-2-|
B|-1---1-1-1-1-1-1-|-2---2-2-2-2-2-2-|-2---2-2-2-2-2-2-|
G|-0---0-0-0-0-0-0-|-2---2-2-2-2-2-2-|-2---2-2-2-2-2-2-|   Guitar 1
D|-2---2-2-2-2-2-2-|-1---1-1-1-1-1-1-|-1---1-1-1-1-1-1-|
A|-3---3-3-3-3-3-3-|-2---2-2-2-2-2-2-|-2---2-2-2-2-2-2-|
E|-----------------|-----------------|-----------------|
 |Muista, että      meillä oli                 hetkemme|
 |                                                     |
e|-----------------|-----------------|-----------------|
B|-----------------|-----------------|-----------------|
G|-0-------0-------|-----------------|-----------------|   Guitar 2
D|-2-------2-------|-4-------4-------|-4-------4-------|
A|-3-------3-------|-6-------6-------|-6-------6-------|
E|-----------------|-7-------7-------|-7-------7-------|


   1 + 2 + 3 + 4 +   1 + 2 + 3 + 4 +   1 + 2 + 3 + 4 +   1 + 2 + 3 + 4 +
   Em
e|-----------------|-----------------|-----------------|-----------------|
B|-----------------|-----------------|-----------------|-----------------|
G|-0-----0---------|-0-----0---------|-0-----0---------|-0-----0---------|   Guitar 1
D|-2-----2---------|-2-----2---------|-2-----2---------|-2-----2---------|
A|-2-----2---------|-2-----2---------|-2-----2---------|-2-----2---------|
E|-0-----0---------|-0-----0---------|-0-----0---------|-0-----0---------|
 |                                                                       |
e|-----------------|-----------------|-----------------|-----------------|
B|-0-0-0-0-0-0-0-0-|-0-0-0-0-0-0-0-0-|-0-0-0-0-0-0-0-0-|-0-0-0-0-0-0-0-0-|
G|-0-0-0-0-0-0-0-0-|-0-0-0-0-0-0-0-0-|-0-0-0-0-0-0-0-0-|-0-0-0-0-0-0-0-0-|   Guitar 2
D|-2-2-2-2-2-2-2-2-|-2-2-2-2-2-2-2-2-|-2-2-2-2-2-2-2-2-|-2-2-2-2-2-2-2-2-|
A|-----------------|-----------------|-----------------|-----------------|
E|-----------------|-----------------|-----------------|-----------------|


[Solo]
(Guitar 1)
   1 + 2 + 3 + 4 +   1 + 2 + 3 + 4 +   1 + 2 + 3 + 4 +   1 + 2 + 3 + 4 +
   Em                A                 F#                B7
e|-----------------|-----------0-----|-----------------|---------7\------|
B|---0-----0-----0-|-----------------|-----0-----------|-0-0-----7\------|
G|-----0-----------|-2-----2---------|---------3h4-----|-----------------|
D|-2-----2-----2---|---4-0-----------|---4-------------|-----------------|
A|-----------------|-----------------|-----------------|-----------------|
E|-----------------|-----------------|-----------------|-----------------|

   1 + 2 + 3 + 4 +   1 + 2 + 3 + 4 +   1 + 2 + 3 + 4 +   1 + 2 + 3 + 4 +
   Em                A                 F#                B7
e|-----------------|-----------0-----|-----------------|-----2---7-------|
B|---0-----0-----0-|-----------------|-----0-----------|-0---------------|
G|-----0-----------|-2-----2---------|---------3h4-----|-----------------|
D|-2-----2-----2---|---4-0-----------|---4-------------|-----------------|
A|-----------------|-----------------|-----------------|-----------------|
E|-----------------|-----------------|-----------------|-----------------|

   1  +  2  +  3  +  4  +    1 + 2 + 3 + 4 +   1 + 2 + 3 + 4 +   1 + 2 + 3 + 4 +   1 + 2 + 3 + 4 +
   C        D                G     Em          C                 B7                Em
e|-3--3--8-----5--5--10-10-|---3-8-7-3-------|-----0-3---------|-----------------|-----------------|--------|
B|-3--5--8-----5--7--10-12-|---------5-------|---1-------------|-0----4----------|-----------------|--------|
G|-------------------------|-----------------|-----------------|----2----4-------|-----------------|--------|
D|-------------------------|-----------------|-----------------|-----------------|-2---------------|--------|
A|-------------------------|-----------------|-----------------|-----------------|-----------------|--------|
E|-------------------------|-----------------|-----------------|-----------------|-----------------|--------|
                                                               (triplets)

(Guitar 2)
   1 + 2 + 3 + 4 +   1 + 2 + 3 + 4 +   1 + 2 + 3 + 4 +   1 + 2 + 3 + 4 +
   Em                A                 F#                B7
e|-----------------|-----------------|-----------------|-----------------|
B|-0-0-0-0-0-0-0-0-|-2-2-2-2-2-2-2-2-|-3-3-3-3-3-3-3-3-|-0-0-0-0-0-0-0-0-|
G|-0-0-0-0-0-0-0-0-|-2-2-2-2-2-2-2-2-|-4-4-4-4-4-4-4-4-|-----------------|
D|-2-2-2-2-2-2-2-2-|-2-2-2-2-2-2-2-2-|-4-4-4-4-4-4-4-4-|-4-4-4-4-4-4-4-4-|  (x2)
A|-----------------|-----------------|-----------------|-6-6-6-6-6-6-6-6-|
E|-----------------|-----------------|-----------------|-----------------|

   1 + 2 + 3 + 4 +   1 + 2 + 3 + 4 +   1 + 2 + 3 + 4 +   1 + 2 + 3 + 4 +   1 + 2 + 3 + 4 +   1 + 2 + 3 + 4 +
   C     D           G     Em          C                 B7                Em
e|-----------------|-----------------|-----------------|-----------------|-----------------|-----------------|
B|-1-1-1-3-3-3-3-3-|-0-0-0-0-0-0-0-0-|-1-1-1-1-1-1-1-1-|-0-0-0-0-0-0-0-0-|-0-0-0-0-0-0-0-0-|-0-0-0-0-0-0-0-0-|
G|-0-0-0-2-2-2-2-2-|-0-0-0-0-0-0-0-0-|-0-0-0-0-0-0-0-0-|-----------------|-0-0-0-0-0-0-0-0-|-0-0-0-0-0-0-0-0-|
D|-2-2-2-4-4-4-4-4-|-0-0-0-2-2-2-2-2-|-2-2-2-2-2-2-2-2-|-4-4-4-4-4-4-4-4-|-2-2-2-2-2-2-2-2-|-2-2-2-2-2-2-2-2-|
A|-----------------|-----------------|-----------------|-6-6-6-6-6-6-6-6-|-----------------|-----------------|
E|-----------------|-----------------|-----------------|-----------------|-----------------|-----------------|


[Verse 3]
   1 + 2 + 3 + 4 +   1 + 2 + 3 + 4 +   1 + 2 + 3 + 4 +   1 + 2 + 3 + 4 +
   Em                A                 F#                B7
e|-----------------|-----------------|-----------------|-----------------|
B|-----------------|-----------------|-----------------|-----------------|
G|-0-----0-----0---|-2-----2-----0---|-3-----3---------|-2-----2---------|   Guitar 1
D|-2-----2-----0---|-2-----2-----0---|-4-----4---------|-1-----1---------|
A|-2-----2-----2---|-0-----0-----2---|-4-----4---------|-2-----2---------|
E|-0-----0-----3---|-------------3---|-2-----2---------|-----------------|
 |  Kutsun saaneena tulin               lähdin... varas säikähdin viimein|
 |  Kun itseeni tarttuneen              tajusin      varttuneen          |
 |                                                                       |  (x2)
 | Em                A                 F#                B7              |
e|-----------------|-----------------|-----------------|-----------------|
B|-0-0-0-0-0-0-0-0-|-2-2-2-2-2-2-2-2-|-3-3-3-3-3-3-3-3-|-0-0-0-0-0-0-0-0-|
G|-0-0-0-0-0-0-0-0-|-2-2-2-2-2-2-2-2-|-4-4-4-4-4-4-4-4-|-----------------|   Guitar 2
D|-2-2-2-2-2-2-2-2-|-2-2-2-2-2-2-2-2-|-4-4-4-4-4-4-4-4-|-4-4-4-4-4-4-4-4-|
A|-----------------|-----------------|-----------------|-6-6-6-6-6-6-6-6-|
E|-----------------|-----------------|-----------------|-----------------|


   1 + 2 + 3 + 4 +   1 + 2 + 3 + 4 +   1 + 2 + 3 + 4 +   1 + 2 + 3 + 4 +
   C     D           G     Em          C
e|-------2---------|-----------------|-----------------|-----------------|
B|-------3---------|-----------------|-1-----1---------|-1-----1---------|
G|-0-----2---------|-0-----0---------|-0-----0---------|-0-----0---------|   Guitar 1
D|-2-----0---------|-0-----2---------|-2-----2---------|-2-----2---------|
A|-3---------------|-2-----2---------|-3-----3---------|-3-----3---------|
E|-----------------|-3-----0---------|-----------------|-----------------|
 |Imin..kuiviin,    tarttui mun huiviin tuoksusi, teit  saman minulle    |
 |                                                                       |
e|-----------------|-----------------|-----------------|-----------------|
B|-1-1-1-3-3-3-3-3-|-0-0-0-0-0-0-0-0-|-1-1-1-1-1-1-1-1-|-1-1-1-1-1-1-1-1-|
G|-0-0-0-2-2-2-2-2-|-0-0-0-0-0-0-0-0-|-0-0-0-0-0-0-0-0-|-0-0-0-0-0-0-0-0-|   Guitar 2
D|-2-2-2-4-4-4-4-4-|-0-0-0-2-2-2-2-2-|-2-2-2-2-2-2-2-2-|-2-2-2-2-2-2-2-2-|
A|-----------------|-----------------|-----------------|-----------------|
E|-----------------|-----------------|-----------------|-----------------|

   1 + 2 + 3 + 4 +   1 + 2 + 3 + 4 +
   B7
e|-----------------|-----------------|
B|-----------------|-----------------|
G|-2-----2---------|-2-----2---------|   Guitar 1
D|-1-----1---------|-1-----1---------|
A|-2-----2---------|-2-----2---------|
E|-----------------|-----------------|
 |  Juoksusi annan  anteeksi sinulle |
 |                                   |
e|-----------------|-----------------|
B|-0-0-0-0-0-0-0-0-|-0-0-0-0-0-0-0-0-|
G|-----------------|-----------------|   Guitar 2
D|-4-4-4-4-4-4-4-4-|-4-4-4-4-4-4-4-4-|
A|-6-6-6-6-6-6-6-6-|-6-6-6-6-6-6-6-6-|
E|-----------------|-----------------|


[Chorus]
   1 + 2 + 3 + 4 +   1 + 2 + 3 + 4 +   1 + 2 + 3 + 4 +   1 + 2 + 3 + 4 +
   C                 D                 G                 Em
e|-0---0-0-0-0-0-0-|-2---2-2-2-2-2-2-|-3---3-3-3-3-3-3-|-0---0-0-0-0-0-0-|
B|-1---1-1-1-1-1-1-|-3---3-3-3-3-3-3-|-0---0-0-0-0-0-0-|-0---0-0-0-0-0-0-|
G|-0---0-0-0-0-0-0-|-2---2-2-2-2-2-2-|-0---0-0-0-0-0-0-|-0---0-0-0-0-0-0-|
D|-2---2-2-2-2-2-2-|-0---0-0-0-0-0-0-|-0---0-0-0-0-0-0-|-2---2-2-2-2-2-2-| \
A|-3---3-3-3-3-3-3-|-----------------|-2---2-2-2-2-2-2-|-2---2-2-2-2-2-2-|  \
E|-----------------|-----------------|-3---3-3-3-3-3-3-|-0---0-0-0-0-0-0-|   \
                                                                              \  (x4)  Guitar 1
   1 + 2 + 3 + 4 +   1 + 2 + 3 + 4 +   1 + 2 + 3 + 4 +   1 + 2 + 3 + 4 +      /
   C                 B7                Em                D                   /
e|-0---0-0-0-0-0-0-|-2---2-2-2-2-2-2-|-0---0-0-0-0-0-0-|-2---2-2-2-2-2-2-|  /
B|-1---1-1-1-1-1-1-|-2---2-2-2-2-2-2-|-0---0-0-0-0-0-0-|-3---3-3-3-3-3-3-| /
G|-0---0-0-0-0-0-0-|-2---2-2-2-2-2-2-|-0---0-0-0-0-0-0-|-2---2-2-2-2-2-2-|
D|-2---2-2-2-2-2-2-|-1---1-1-1-1-1-1-|-2---2-2-2-2-2-2-|-0---0-0-0-0-0-0-|
A|-3---3-3-3-3-3-3-|-2---2-2-2-2-2-2-|-2---2-2-2-2-2-2-|-----------------|
E|-----------------|-----------------|-0---0-0-0-0-0-0-|-----------------|


   1 + 2 + 3 + 4 +   1 + 2 + 3 + 4 +   1 + 2 + 3 + 4 +   1 + 2 + 3 + 4 +
   C                 D                 G                 Em
e|-----------------|-----------------|-----------------|-----------------|
B|-----------------|-----------------|-0-------0-------|-0-------0-------|
G|-0-------0-------|-2-------2-------|-0-------0-------|-0-------0-------|
D|-2-------2-------|-4-------4-------|-0-------0-------|-2-------2-------| \
A|-3-------3-------|-5-------5-------|-----------------|-----------------|  \
E|-----------------|-----------------|-----------------|-----------------|   \
                                                                              \  (x4)  Guitar 2
   1 + 2 + 3 + 4 +   1 + 2 + 3 + 4 +   1 + 2 + 3 + 4 +   1 + 2 + 3 + 4 +      /
   C                 B7                Em                D                   /
e|-----------------|-----------------|-----------------|-----------------|  /
B|-----------------|-----------------|-0-------0-------|-----------------| /
G|-0-------0-------|-----------------|-0-------0-------|-2-------2-------|
D|-2-------2-------|-4-------4-------|-2-------2-------|-4-------4-------|
A|-3-------3-------|-6-------6-------|-----------------|-5-------5-------|
E|-----------------|-7-------7-------|-----------------|-----------------|

     C                  D                  G            Em
Vain tahroja paperilla, älä siis suutu, ei niistä asiat miksikään muutu
   C                   B7             Em                  D
Ei se, että meillä oli retkemme, eikä se, että meillä oli hetkemme
    C              D                   G                  Em
Voi tuuli kylmästi kutittaa selkää, se eteenpäin työntää, älä siis pelkää
C                      B7               Em       D
Älä huoli siitä, sillä meillä oli hetkemme, a - aa
     C                  D                  G            Em
Vain tahroja paperilla, älä siis suutu, ei niistä asiat miksikään muutu
   C                   B7             Em                  D
Ei se, että meillä oli retkemme, eikä se, että meillä oli hetkemme
    C              D                   G                  Em
Voi tuuli kylmästi kutittaa selkää, se eteenpäin työntää, älä siis pelkää
C                      B7               Em       D
Älä huoli siitä, sillä meillä oli hetkemme, a - aa


[Solo]
e|-----------------------------------------------------------------------------------------------|
B|------------------------------------------------10-----10------10---10-10----------------------|
G|-11-11-9-11-11-11-9-11-11-9-9--11-9-11-11-----11-----11---------------------11-11-11-11-9-11-9-|  Guitar 1
D|-----------------------------------------------------------------------------------------------|
A|-----------------------------------------------------------------------------------------------|
E|-----------------------------------------------------------------------------------------------|


[Chorus]
   1 + 2 + 3 + 4 +   1 + 2 + 3 + 4 +   1 + 2 + 3 + 4 +   1 + 2 + 3 + 4 +
   C                 D                 G                 Em
e|-0---0-0-0-0-0-0-|-2---2-2-2-2-2-2-|-3---3-3-3-3-3-3-|-0---0-0-0-0-0-0-|
B|-1---1-1-1-1-1-1-|-3---3-3-3-3-3-3-|-0---0-0-0-0-0-0-|-0---0-0-0-0-0-0-|
G|-0---0-0-0-0-0-0-|-2---2-2-2-2-2-2-|-0---0-0-0-0-0-0-|-0---0-0-0-0-0-0-|
D|-2---2-2-2-2-2-2-|-0---0-0-0-0-0-0-|-0---0-0-0-0-0-0-|-2---2-2-2-2-2-2-| \
A|-3---3-3-3-3-3-3-|-----------------|-2---2-2-2-2-2-2-|-2---2-2-2-2-2-2-|  \
E|-----------------|-----------------|-3---3-3-3-3-3-3-|-0---0-0-0-0-0-0-|   \
                                                                              \  (x2)  Guitar 1
   1 + 2 + 3 + 4 +   1 + 2 + 3 + 4 +   1 + 2 + 3 + 4 +   1 + 2 + 3 + 4 +      /  fade out
   C                 B7                Em                D                   /
e|-0---0-0-0-0-0-0-|-2---2-2-2-2-2-2-|-0---0-0-0-0-0-0-|-2---2-2-2-2-2-2-|  /
B|-1---1-1-1-1-1-1-|-2---2-2-2-2-2-2-|-0---0-0-0-0-0-0-|-3---3-3-3-3-3-3-| /
G|-0---0-0-0-0-0-0-|-2---2-2-2-2-2-2-|-0---0-0-0-0-0-0-|-2---2-2-2-2-2-2-|
D|-2---2-2-2-2-2-2-|-1---1-1-1-1-1-1-|-2---2-2-2-2-2-2-|-0---0-0-0-0-0-0-|
A|-3---3-3-3-3-3-3-|-2---2-2-2-2-2-2-|-2---2-2-2-2-2-2-|-----------------|
E|-----------------|-----------------|-0---0-0-0-0-0-0-|-----------------|


   1 + 2 + 3 + 4 +   1 + 2 + 3 + 4 +   1 + 2 + 3 + 4 +   1 + 2 + 3 + 4 +
   C                 D                 G                 Em
e|-----------------|-----------------|-----------------|-----------------|
B|-----------------|-----------------|-0-------0-------|-0-------0-------|
G|-0-------0-------|-2-------2-------|-0-------0-------|-0-------0-------|
D|-2-------2-------|-4-------4-------|-0-------0-------|-2-------2-------| \
A|-3-------3-------|-5-------5-------|-----------------|-----------------|  \
E|-----------------|-----------------|-----------------|-----------------|   \
                                                                              \  (x2)  Guitar 2
   1 + 2 + 3 + 4 +   1 + 2 + 3 + 4 +   1 + 2 + 3 + 4 +   1 + 2 + 3 + 4 +      /  fade out
   C                 B7                Em                D                   /
e|-----------------|-----------------|-----------------|-----------------|  /
B|-----------------|-----------------|-0-------0-------|-----------------| /
G|-0-------0-------|-----------------|-0-------0-------|-2-------2-------|
D|-2-------2-------|-4-------4-------|-2-------2-------|-4-------4-------|
A|-3-------3-------|-6-------6-------|-----------------|-5-------5-------|
E|-----------------|-7-------7-------|-----------------|-----------------|

     C                  D                  G            Em
Vain tahroja paperilla, älä siis suutu, ei niistä asiat miksikään muutu
   C                   B7             Em                  D
Ei se, että meillä oli retkemme, eikä se, että meillä oli hetkemme
    C              D                   G                  Em
Voi tuuli kylmästi kutittaa selkää, se eteenpäin työntää, älä siis pelkää
C                      B7               Em       D
Älä huoli siitä, sillä meillä oli hetkemme, a - aa


******************
| h   Hammer-on
| \   Slide down

            
            
Suggest correction
Creating personal tab
Creating personal tab
You can edit any tab online and save it as your Personal.

You can edit, replace or remove any tab part or add personal notes – all changes will be seen only by you.

Personal tabs can be accessed anytime from any device, even offline.
Learn more »
Give kudos to tab author, rate the tab!
1 2 3 4 5
comments
print report bad tab
guest
You may want to rate the tab now too:
select rating
Wanna post a correction for this tab? Suggest correction