Oops, an error
Loading. Please wait.

Ang Huling El Bimbo Bass

version 4
version 4

Whole song

Interactive

808 views 21 this week
no commentswrite comment
1 2 3 4 5
3 more votes to show rating
add to favorites
launch autoscroll
font size
0
reset
guitar tuner
Autoscroll
slow
fast
+/-
esc
set tempo
stop
Author
Difficulty
intermediate
Intro:
G|---3-3----------------------------------------------|
D|---------/1212121212121212--------------------------|
A|----------------------------------------------------|
E|----------------------------------------------------|

G|---0-0----------------------------------------------|
D|-------/1212121212121212----------------------------|
A|----------------------------------------------------|
E|----------------------------------------------------|

G|---4-4----------------------------------------------|
D|------/12121212121212/14----------------------------|
A|----------------------------------------------------|
E|----------------------------------------------------|

G|---3-3----------------------------------------------|
D|------3/5-7-4\0-------------------------------------|
A|---------2------------------------------------------|
E|--------------2-------------------------------------|

G|------------------------------3---------------------|
D|---------------2-3-555-7-8-3------------------------|
A|----------------------------------------------------|
E|----------------------------------------------------|


Ngunit ang Paborito...
G|----------------------------------------------------|
D|--------------------7-------------------------------|
A|---5-5-7-------5------4-5---5/7-7--5-4--------------|
E|---------9/5-4-------------------5------------------|

Pre Chorus:
G|-----------33333333---------------------------------|
D|--------------------44444444--66666666--------------|
A|--22222222------------------------------------------|
E|----------------------------------------------------|

G|-----------33333333---------------------------------|
D|--88888888---------44444444--66666666---3-----------|
A|--------------------------------------2-------------|
E|----------------------------------------------------|

chorus 1:
G|--33----------------------3-0-2-3---------------------|
D|----3-5/8-4\0--0-2-3-4-5-2----------------------------|
A|------------------------------------------------------|
E|-------------2----------------------------------------|

G|--33----------------------3-0-2-3---------------------|
D|----3-5/8-4\0--0-2-3-4-5-2----------------------------|
A|------------------------------------------------------|
E|-------------2----------------------------------------|

Verse 3: Nanigas ang aking..
G|------------------------------------------------------|
D|-----------------6-8----------------------------------|
A|---------------5-----5--------------------------------|
E|--8/6--8/5--8/4--------3-7\8/6--8/5--8/4--------------|

Verse 4: Lumiliwanag ang buhay..
G|-------6-5-3-0-3333------------------------------------|
D|-----5-------------3/5-7-4\0---0-2-3-------------------|
A|--5-4-----------------2--------------------------------|
E|----------------------------2--------------------------|

G|-----------------------7/3-----------------------------|
D|--6-7h---------9-7-8-9-----3/5-7-4\0--0-2-3------------|
A|------6-7h-6-6----------------2------------------------|
E|------------------------------------2------------------|

G|-------------------------------------------------------|
D|-6-7h--------------------------------------------------|
A|------6-7h-77777777------------------------------------|
E|-------------------------------------------------------|

Sana noon paman ay...
G|-----------33333333---------------------------------|
D|--------------------44444444--66666666--------------|
A|--22222222------------------------------------------|
E|----------------------------------------------------|

G|-----------33333333---------------------------------|
D|--88888888---------44444444--66666666---3-----------|
A|--------------------------------------2-------------|
E|----------------------------------------------------|

Chorus 2:
G|-------6-5-3-0-3333------------------------------------|
D|-----5-------------3/5-7-4\0---0-2-3-------------------|
A|--5-4-----------------2--------------6-7h--------------|
E|----------------------------2-------------6-7h-4-5-6-7-|

G|---3-3----------------------------------------------|
D|---------/1212121212121212--------------------------|
A|----------------------------------------------------|
E|----------------------------------------------------|

G|---0-0----------------------------------------------|
D|-------/1212121212121212----------------------------|
A|----------------------------------------------------|
E|----------------------------------------------------|

G|---4-4----------------------------------------------|
D|------/12121212121212/14----------------------------|
A|----------------------------------------------------|
E|----------------------------------------------------|

Lumipas and maraming taon..
G|----------------------------------------------------|
D|----------------------------------------------------|
A|--7-------------------------------------------------|
E|----5-5-7-8/6-8/5-8/4-------------------------------|


Taga hugas ka raw...
G|-1-2-3-------------3-3------3------3----------------|
D|-------0-0-2-3-3-5---55555---55555--55555/7\5-4-----|
A|----------------------------------------------------|
E|----------------------------------------------------|


Lahat ng pangarap..
G|----------33333333--------------------------33333333------------------|
D|------------------33333333-5555555------------------555-----5--5--5---|
A|--22222222------------------------5/22222222--------------------------|
E|-------------------------------------------------------77777--7--7--7-|

Chrous 3:
G|-33-----------------------------------------9/3---------|
D|---3/5-7-4\0--0-2-33--6-7h--------9-7-8-9-7-------------|
A|---------------------------6-7h-6-----------------------|
E|--------------------------------------------------------|

G|-33-----------------------------------------9/3---------|
D|---3/5-7-4\0--0-2-33--6-7h--------9-7-8-9-7-------------|
A|---------------------------6-7h-6-----------------------|
E|--------------------------------------------------------|

Magkahawak ang ating kamay..
G|---3-3----------------------------------------------|
D|---------/1212121212121212--------------------------|
A|----------------------------------------------------|
E|----------------------------------------------------|

G|---0-0----------------------------------------------|
D|-------/1212121212121212----------------------------|
A|----------------------------------------------------|
E|----------------------------------------------------|

G|---4-4----------------------------------------------|
D|------/12121212121212/14----------------------------|
A|----------------------------------------------------|
E|----------------------------------------------------|


La la la la la...
G|---3-33--5--5-55-----------33-33----------------------|
D|-------------------33-33------------------------------|
A|----5--5---7-7--7------------5--5---------------------|
E|---------------------5--5-----------------------------|


G|---3-33--5--5-55-----------33-33----------------------|
D|-------------------33-33------------------------------|
A|----5--5---7-7--7------------5--5---------------------|
E|---------------------5--5-----------------------------|

guitar soo
G|------------------------------------------------------|
D|------------12-9--------------------------------------|
A|-5-2-3-4--------9-10----------------------------------|
E|--------4-5---------9-11/14---------------------------|


G|---------------------2--------------------------------|
D|--4-----------------3-3--9----------------------------|
A|---2-5h-0-5---------------8-9-------------------------|
E|-----------4-5-6/8-----------8-9/12-------------------|

G|-3-11-3-11-0-2-3-0-2-3--------------------------------|
D|----------------------33-11-33-11---------------------|
A|------------------------------------------------------|
E|------------------------------------------------------|

G|-3-11-3-11-0-2-3-0-2-3--------------------------------|
D|----------------------33-11-33-11---------------------|
A|------------------------------------------------------|
E|------------------------------------------------------|


G|---------------------------------------------------------------|
D|-2-3-4-5-------------------------------------------------------|
A|---------55555-555555-55555-555555-55555-555555--55555--555555-|
E|---------------------------------------------------------------|


G|---------------------------------------------------------------|
D|-2-3-4-5-------------------------------------------------------|
A|---------55555-555555-55555-555555-55555-555555--55555--555555-|
E|---------------------------------------------------------------|

G|------------------------------------------------------|
D|-2-3-4-5----------------------------------------------|
A|--------88888888-77777777-66666666-55555555-----------|
E|------------------------------------------------------|


G|------------------------------------------------------|
D|-2-3-4-5----------------------------------------------|
A|--------88888888-77777777-66666666-55555555-----------|
E|------------------------------------------------------|

G|----------------------------------------------------|
D|------8---7----6---5---6----------------------------|
A|----------------------------------------------------|
E|----------------------------------------------------|
Suggest correction
Give kudos to tab author, rate the tab!
1 2 3 4 5
comments
print report bad tab
guest
You may want to rate the tab now too:
select rating
Wanna post a correction for this tab? Suggest correction