Oops, an error
Loading. Please wait.

Ang Huling El Bimbo Bass Tab

version 4
version 4

Interactive

6,101 views 15 this week
no commentswrite comment
1 2 3 4 5
please rate
add to favorites
launch autoscroll
font size
0
reset
guitar tuner
Autoscroll
slow
fast
+/-
esc
set tempo
stop
Help us to improve Ultimate-Guitar.com Take our survey!
×
Song: Ang Huling El Bimbo
Artist: Eraserheads
Tabbed By: Jason Idulsa
Contact No.: 09056637842

inro:

E|---3333--------------5555---------------8888----------------3333333---|
A|-------/10-10-10-10/-----/10-10-10-10/------/10-10-10-10/-------------|
D|----------------------------------------------------------------------|
G|----------------------------------------------------------------------|

E|---33333333/55555555/88888888/3-----------|
A|------------------------------------------|
D|------------------------------------------|
G|------------------------------------------|


1st Verse:

  start in the 2nd part of the verse (ngunit ang paborito....)
E|------------------------------------------|
A|------------------------------------------|
D|------------------------------------------|
G|-------0--0h1h2--9s5--5--0h2h4--0---------|

E|------------------------------------------|
A|------------------------------------------|
D|------------------------------------------|
G|-------0--0h1h2--5------------------------|


Refrain:

E|---00000000-33333333-55555555-00335588----|
A|------------------------------------------|
D|------------------------------------------|
G|------------------------------------------|

E|---00000000-33333333-55555555-00335588----|
A|------------------------------------------|
D|------------------------------------------|
G|------------------------------------------|

*7,10,12,15

E|---77101012121515-------------------------|
A|------------------------------------------|
G|------------------------------------------|
G|------------------------------------------|


Chorus:

E|---33333333-55555555-88888888-33333333----|
A|------------------------------------------|
D|------------------------------------------|
G|------------------------------------------|

E|---33333333-55555555-88888888-3-----------|
A|------------------------------------------|
D|------------------------------------------|
G|------------------------------------------|

2nd Verse:

E|------------------------------------------|
A|--------------------------7s9--7h9--9-----|
D|------------------------------------------|
G|---9s5--5--9s5--4--9s5--5-----------------|

E|------------------------------------------|
A|------------------------------------------|
D|---0h2--5--------------------------7530---|
G|-----------9s5--5--9s5--4--9s5--5---------|

E|--3--3h5--7--12s5--578--8h10--12--15s3----|---0--0h2--3--2--0--|
A|------------------------------------------|--------------------|
D|------------------------------------------|--------------------|
G|------------------------------------------|--------------------|

E|--3--3h5--7--12s5--578--8h10--12--15--12--|--------------------|
A|------------------------------------------|--------------------|
D|------------------------------------------|---55--33--00-------|
G|------------------------------------------|--------------------|


Refrain:

E|---00000000-33333333-55555555-00335588----|
A|------------------------------------------|
D|------------------------------------------|
G|------------------------------------------|

E|---00000000-33333333-55555555-00335588----|
A|------------------------------------------|
D|------------------------------------------|
G|------------------------------------------|


Chorus:

E|---33333333-55555555-88888888-33333333----|
A|------------------------------------------|
D|------------------------------------------|
G|------------------------------------------|

E|---33333333-55555555-88888888-3-----------|
A|------------------------------------------|
D|------------------------------------------|
G|------------------------------------------|


Bridge:

E|---3333--------------5555---------------8888----------------3--|
A|-------/10-10-10-10/-----/10-10-10-10/------/10-10-10-10/------|
D|---------------------------------------------------------------|
G|---------------------------------------------------------------|


3rd Verse:

start in "Nagkita..."

E|---------|------------------------------------|
A|---------|------------------------------------|
D|---------|------------------------------------|
G|---4--0--|---0h2--4--9s5--5--9s5--4--9s5---5--|

E|---358--33333333--55555555--88888888--33333333-|
A|-----------------------------------------------|
D|-----------------------------------------------|
G|-----------------------------------------------|

E|---33333333-55555555-88888888-33333333----|
A|------------------------------------------|
D|------------------------------------------|
G|------------------------------------------|


Refrain:

E|---00000000-33333333-55555555-00335588----|
A|------------------------------------------|
D|------------------------------------------|
G|------------------------------------------|

E|---00000000-33333333-55555555-00335588----|
A|------------------------------------------|
D|------------------------------------------|
G|------------------------------------------|

*7,10,12,15

E|---77101012121515-------------------------|
A|------------------------------------------|
G|------------------------------------------|
G|------------------------------------------|


Chorus:

E|---33333333-55555555-88888888-33333333----|
A|------------------------------------------|
D|------------------------------------------|
G|------------------------------------------|

E|---33333333-55555555-88888888-33333333----|
A|------------------------------------------|
D|------------------------------------------|
G|------------------------------------------|

E|---3333--------------5555---------------8888----------------3333333---|
A|-------/10-10-10-10/-----/10-10-10-10/------/10-10-10-10/-------------|
D|----------------------------------------------------------------------|
G|----------------------------------------------------------------------|

E|---3333--------------5555---------------8888----------------3333333---|
A|-------/10-10-10-10/-----/10-10-10-10/------/10-10-10-10/-------------|
D|----------------------------------------------------------------------|
G|----------------------------------------------------------------------|

Outro:

E|---33333333-55555555-88888888-33333333----|
A|------------------------------------------|
D|------------------------------------------|
G|------------------------------------------|

E|---33333333-55555555-88888888-33333333----|
A|------------------------------------------|
D|------------------------------------------|
G|------------------------------------------|

*d q na makuha yung lst part... tinatamad na... hehehe... sana maenjoy nio...
Suggest correction
What's this?
You can suggest a correction to this tab. Community and Mods will review your correction and vote to approve or reject it.
comments
We did not receive enough feedback on this tab! Please rate:
print report bad tab
1 2 3 4 5
guest
You may want to rate the tab now too:
select rating
Please do not post tabs as comments. Select "correction" instead!