Oops, an error
Loading. Please wait.

Ang Huling El Bimbo Acoustic tab

version 4
version 4

Whole song

Interactive

379 views 3 this week
no commentswrite comment
1 2 3 4 5
3 more votes to show rating
add to favorites
×
Save as Personal and add changes to this tab that will be seen only by you. Learn more ›
×
You can save this tab as Personal to edit and correct it or add notes. All changes will be seen only by you. Learn more »
launch autoscroll
font size
0
reset
how to read this tab
guitar tuner
edit
Autoscroll
slow
fast
+/-
esc
set tempo
stop
About this tab version
First time ko po gumawa ng tabs kaya medyo magulo hehe pero kung mapapakinggan nyo po video ko maiintindihan nyo po ung tabs hehe..pm lang po kung may tanong kayo :D. Was this info helpful? Yes No
Arranged by : Sungha Jung
Re-Arranged by :Carlo James del Valle


[Intro]:

E|--3--------3--------3--------3--|---3--------------------3-------|-3--------3--------3--|
B|--3--------2--------1--------3--|---1--------------------3-------|-2--------1--------3--|
G|--0--------0--------0--------0--|---0--------------------0-------|-0--------0--------0--|
D|--0--------2--------2--------0--|---2--------------------0-------|-2--------2--------0--|
A|--2-----------------3--------2--|---3--------------------2-------|----------3--------2--|
E|--3--------------------------3--|------------------------3-------|-------------------3--|

Stave 1:
     Kamukha mo si Paraluman
E|--------------------------------|-------3-----3------------------|-------------------3--|
B|--0--0-----0--------------------|-------2-----2------------------|-----------0h1--0--3--|
G|--------------------0--0-----2p0|--2p0--0-----0-----------0--0--0|-----0--0----------0--|
D|-----------------0-----0--------|-------2-----2--------------0---|--------0----------0--|
A|--------------------------------|----------------------3--------3|--3----------------2--|
E|--------------3--------x--------|-------x--------------------x---|--------x--3-------x--|


E|--------------------------------|--3-----3-----------------------|-----------------------|
B|--3-----------3-----3-----2p0---|--2-----2--------1-----------1h3|--1-----0--------------|
G|--------0--0-------------------2|--0-----0--------------0--0-----|-----------------0--0--|
D|-----0-----0--------------------|--2-----2-----------0-----0-----|--------------0-----0--|
A|--------------------------0-----|-----------------3-----------3--|-----------------------|
E|--3--------x--3--3-----x--------|--x-----------------------x-----|-----x-----3--------x--|


E|--------------------------------|--------------3-----3-----------|---------------------------------3|
B|--3--3--------3-----------3-----|3-----2p0-----2-----2--------1--|---------1h3--1-----0------------3|
G|--------0-----------0--0--------|-----------2--0-----0-----------|---0--0---------------------2p0--0|
D|--------0--0-----0-----0--------|--------------2-----2-----------|0-----0--------------------------0|
A|--------------------------------|------0----------------------3--|---------3------------------------|
E|--3-----x-----3--------x--3--3--|---x----------x-----------------|------x----------x-------3-------x|

Stave 2:
    [REFRAIN]
E|-----------------------------0--|-------------------------------------------------2|
B|-----------------------------0--|3-----0--0-----------1--0--0---------------0-----3|
G|--------------0--0--0-----0-----|---------0--2--0--0--------0--2--2p0----------2--2|
D|--------------0--------0--------|---------0--------0----------------0--------------|
A|-----------2--------------------|---2--------2--------3----------------------------|
E|--2-----0-----x-----0--------x--|---------x--------x--------x--0----x--------------|


E|-----------------------------0--|--------------------------------|---------0-----2----------2-----3|
B|-----------------------------0--|3-----0--0--------------1-------|----1h3----------------3--3-----3|
G|--------------0--0--0-----0-----|---------0--2--0--2--0--------0-|-0------------------------2-----2|
D|--------------0--------0--------|---------0--------0--------0----|-0------------------0-----0-----0|
A|-----------2--------------------|---2--------2-----------3-------|----3----------------------------|
E|--2-----0-----x-----0--------x--|---------x--------x-------------|-x----------x-------------x------|

Stave 3:
    [CHORUS]
E|--------------------3--3--------|------------3--3----------------|----------------0---------------------|
B|--0--0--1--3-----3--3--------3--|0--2-----2--3--------2--2p0--1--|-----------1h3--------0--------------3|
G|--------0-----------------------|--------------------------------|---0----0----------------------0--0---|
D|--------------------------------|--------------------------------|0-------0-------------------0-----0---|
A|--------------------------------|---0--0-----------0----------3--|-----------3--------------------------|
E|--3-----x-----3-----x-----3-----|x-----------x-----------x-------|--------x----------x-----3--------x--3|


E|--------------------3-----------|---------3--3-------------------|-------------0----------------3-----3|
B|-----0--1--1-----3--3-----3--0--|2-----2--3--------2--2p0--1-----|--------1h3--------0----------3-----3|
G|--------0-----------------------|--------------------------------|0----0-------------------2p0--0-----0|
D|--------------------------------|-----------------------------0--|-----0------------------------0-----0| 
A|--------------------------------|0--0-----------0----------3-----|--------3---------------------------2|
E|--3-----x-----3-----x--3-----x--|---------x-----------x----------|-----x----------x-----3-------x-----3|
           Balik po kayo ng Stave 1 
Stave 4:
    La la la la la la la
E|--------------------------------|--------------------------------|----------------------------------|
B|--0--0--1--3-----3--3--3-----3--|0--2-----2--2--2-----2--0--1----|-1--1--1h3--1-----0--------------3|
G|--------0-----------0-----------|0-----------0-----------0-------|----0----------------------0--0---|
D|--------------------------------|--------------------------------|------------------------0-----0---|
A|--------------------------------|---0--0--------0--0--------3--3-|-------3--------------------------|
E|--3-----x-----3-----x--3--3-----|x-----------x-----------x-------|----x----------x-----3--------x--3|
 

E|--------------------------------|--------------------------------|-----------------------------------3|
B|--3-----3--3-----3-----------3--|---3--0--2-----2--2--2-----2--0-|-1-----1--1--1h3--1-----0----------3|
G|-----------0-----------0--0-----|------0-----------0-----------0-|----------0-------------------2p0--0|
D|--------------0-----0-----0-----|--------------------------------|-----------------------------------0|
A|--------------------------------|---------0--0--------0--0-------|-3--3--------3----------------------|
E|--3--3-----x-----3--------x--3--|3-----x-----------x-----------x-|----------x----------x-----3-------x|

Stave 5:

E|--3--------5--------8---|--
B|--3--------5--------8---|--
G|--4--------6--------9---|--
D|--5--------7--------10--|--
A|--5--------7--------10--|--
E|--3--------5--------8---|--

   Puro Strumming na po ito . REPEAT x2



************************************

| h  Hammer-on
| p  Pull-off
| x  Dead note

************************************
Suggest correction
Creating personal tab
Creating personal tab
You can edit any tab online and save it as your Personal.

You can edit, replace or remove any tab part or add personal notes – all changes will be seen only by you.

Personal tabs can be accessed anytime from any device, even offline.
Learn more »
Give kudos to tab author, rate the tab!
1 2 3 4 5
comments
print report bad tab
guest
You may want to rate the tab now too:
select rating
Wanna post a correction for this tab? Suggest correction