Oops, an error
Loading. Please wait.

Ang Huling El Bimbo bass

version 5
version 5

Whole song

Interactive

635 views 3 this week
no commentswrite comment
1 2 3 4 5
3 more votes to show rating
add to favorites
×
Save as Personal and add changes to this tab that will be seen only by you. Learn more ›
×
You can save this tab as Personal to edit and correct it or add notes. All changes will be seen only by you. Learn more »
launch autoscroll
font size
0
reset
guitar tuner
edit
Autoscroll
slow
fast
+/-
esc
set tempo
stop
Author
Difficulty
ANG HULING EL BIMBO
Eraserheads
Cutterpillow

Tabbed by. Darwin tanchingco(tanchingco_darwin@yahoo.com)


For my someone special in my heart <3 ^__^


Tunning. Haftstep down D#,G#,C#,f#

INTRO
G|---------------------------------------------------------------|
D|---------------------------------------------------------------|
A|---------------------------------------------------------------|
E|---3---3---3/10-10-10-10-10--10\5---5---5/10-10-10-10-10--10\--|

G|---------------------------------------------------------------|
D|---------------------------------------------------------------|
A|---------------------------------------------------------------|
E|---8---8---8/10-10-10-10-10--10\3---3---3/10-10-10-10-10--10\5-|

G|---------------------------------------------------------------|
D|---------------------------------------------------------------|
A|---------------------------------------------------------------|
E|--3-3-3-3-3-3-3-3---5-5-5-5-5-5-5-5---8-8-8-8-8-8-8-8----3~----|

VERSE 1
Kamukha mo si paraluman nung tayo ay bata pa
At ang galing galing mong sumayaw,mapaboogie man o cha-cha
G|---------------------------------------------------------------|
D|---------------------------------------------------------------|
A|---------------------------------------------------------------|
E|---------------------------------------------------------------|

Ngunit ang paborito ay pagsayaw mo ng el bimbo

G|-------------------------------------------------------------|
D|-------------------------------------------------------------|
A|------------------------------------7~\4------------3--------|
E|----3~-------------3~/5---------------------------------3----|

Nakakaindak,nakakaaliw,nakaktindig balahibo
G|---------------------------------------------------------------|
D|---------------------------------------------------------------|
A|------------------------------------3~-------------------------|
E|----3~-------------3~/------------------------------3~---------|

REFRAIN
Pagkagaling sa eskwela ay didiretso na sa inyo
G|-----------------------------------------------------------------|
D|-----------------------------------------------------------------|
A|-----------------2-2-2-2-2-2-2-2-3-3-3-3-3-3-3-3-5-5-5-5-5-5-5-5-|
E|-0-0-0-0-0-0-0-0-------------------------------------------------|

At buong maghapon ay tinuruan mo ako…

G|-----------------------------------------------------------------|
D|-----------------------------------------------------------------|
A|-7-7-7-7-7-7-7-7-2-2-2-2-2-2-2-2-3-3-3-3-3-3-3-3-5-5-5-5-5-5-5-5-|
E|-----------------------------------------------------------------|

G|--------------------|
D|--------------------|
A|--5-5-5-5-5-5-5-5---|
E|--------------------|

CHORUS 1
Magkahawak an gating kamay at walang kamalay-malay
G|---------------------------------------------------------------|
D|-----------------------------------------2-5-------------------|
A|-----2-5-5/7\0---0--0--0-0-0-2---3--3-3-5--------5/7--5-5-7--3-|
E|-3--------------------------------------------3----------------|

Na tinuruan mo ang puso ko na umibig ng tunay
G|---------------------------------------------------------------|
D|----------------------------------------2-5--------------------|
A|----2-5-5/7\0--0--0--0-0-0-2---3--3-3-5--------5/7--5-5-7--3-5-|
E|-3-------------------------------------------3-----------------|



VERSE 2
Ninigas ang aking katawan,Pag umikot na ang plaka..
G|-----------------------------------------------------------|
D|-----------------------------------------------------------|
A|---7~\4---------7~\3----------7~\2-------------------------|
E|-------------------------------------------3--------0-2----|

Patay sa kembot ng beywang mo,At pungay ng yong mga mata…
G|-------------------------------------------------------------|
D|-------------------------------------------------------------|
A|----------2—5/7\~4----------7~\3----------7~\2-------2-0-----|
E|---3-----------------------------------------------------3---|

Lumiliwanag ang buhay,habang tayo’y magkaakbay…
G|---------------------------------------------------------------|
D|-----------------------------------------2-5-------------------|
A|-----2-5-5/7\0---0--0--0-0-0-2---3--3-3-5--------5/7--5-5-7--3-|
E|-3--------------------------------------------3----------------|

At dahan-dahang dumudulas,ang kamay ko sa makinis mong braso hooh…
G|---------------------------------------------------------------|
D|----------------------------------------2-5--------------------|
A|----2-5-5/7\0--0--0--0-0-0-2---3--3-3-5--------5/7--5-5-7--3-5-|
E|-3-------------------------------------------3-----------------|

REFRAIN 2
Sana noon pa man ay sinabi na sa inyo…
G|-----------------------------------------------------------------|
D|-----------------------------------------------------------------|
A|-----------------2-2-2-2-2-2-2-2-3-3-3-3-3-3-3-3-5-5-5-5-5-5-5-5-|
E|-0-0-0-0-0-0-0-0-------------------------------------------------|

Kahit di na uso ito lang alam ko…
G|-----------------------------------------------------------------|
D|-----------------------------------------------------------------|
A|-7-7-7-7-7-7-7-7-2-2-2-2-2-2-2-2-3-3-3-3-3-3-3-3-5-5-5-5-5-5-5-5-|
E|-----------------------------------------------------------------|

CHORUS 2
Magkahawak an gating kamay at walang kamalay-malay
G|---------------------------------------------------------------|
D|-----------------------------------------2-5-------------------|
A|-----2-5-5/7\0---0--0--0-0-0-2---3--3-3-5--------5/7--5-5-7--3-|
E|-3--------------------------------------------3----------------|

Na tinuruan mo ang puso ko na umibig ng tunay
G|---------------------------------------------------------------|
D|----------------------------------------2-5--------------------|
A|----2-5-5/7\0--0--0--0-0-0-2---3--3-3-5--------5/7--5-5-7--3-5-|
E|-3-------------------------------------------3-----------------|

INTERLUDE

Lalalala lala lalalala
G|---------------------------------------------------------------|
D|---------------------------------------------------------------|
A|---------------------------------------------------------------|
E|---3---3---3/10-10-10-10-10--10\5---5---5/10-10-10-10-10--10\--|

G|-----------------------------------------|
D|-----------------------------------------|
A|-----------------------------------------|
E|---8---8---8/10-10-10-10-10--10\3---3~---|

VERSE 3
Lumipas ang maraming taon,di na tayo nagkita…
G|-------------------------------------------------------------|
D|-------------------------------------------------------------|
A|-------------------------------------3~----------------------|
E|--------------------5~--------------------------------0--2---|

Balita ko’y may anak ka na,Ngunit walang asawa…
G|-------------------------------------------------------------|
D|-------------------------------------------------------------|
A|-----------2—5/7~\4--------7\~3----------7~\2----------------|
E|---3--------------------------------------------------0--2---|

Tagahugas ka raw ng pinggan sa may ermita…
G|---------------------------------------------------------------|
D|-----------------------------------------2-5-------------------|
A|-----2-5-5/7\0---0--0--0-0-0-2---3--3-3-5--------5/7--5-5-7--3-|
E|-3--------------------------------------------3----------------|

At isang gabi nasagasaan,Sa isang madilim na eskenita aahhh…
G|---------------------------------------------------------------|
D|----------------------------------------2-5--------------------|
A|-----------------0~------------3--3-3-5--------5/7--5-5-7--3-5-|
E|---3~----------------------------------------3-----------------|

REFRAIN 3
Lahat ng pangarap ko,bigla lang natunaw…
G|-----------------------------------------------------------------|
D|-----------------------------------------------------------------|
A|-----------------2-2-2-2-2-2-2-2-3-3-3-3-3-3-3-3-5-5-5-5-5-5-5-5-|
E|-0-0-0-0-0-0-0-0-------------------------------------------------|

Sa panaginip na lang pala kita maisasayaw…
G|-----------------------------------------------------------------|
D|-----------------------------------------------------------------|
A|-7-7-7-7-7-7-7-7-2-2-2-2-2-2-2-2-3-3-3-3-3-3-3-3-5-5-5-5-5-5-5-5-|
E|-----------------------------------------------------------------|

G|--------------------|
D|--------------------|
A|--5-5-5-5-5-5-5-5---|
E|--------------------|



CHORUS 3
Magkahawak an gating kamay at walang kamalay malay…
G|---------------------------------------------------------------|
D|-----------------------------------------2-5-------------------|
A|-----2-5-5/7\0---0--0--0-0-0-2---3--3-3-5--------5/7--5-5-7--3-|
E|-3--------------------------------------------3----------------|

Na tinuruan mo ang puso ko na umibig ng tunay…
G|---------------------------------------------------------------|
D|----------------------------------------2-5--------------------|
A|----2-5-5/7\0--0--0--0-0-0-2---3--3-3-5--------5/7--5-5-7--3-5-|
E|-3-------------------------------------------3-----------------|

CHORUS 4
Magkahawak an gating kamay at walang kamalay malay…
G|-------------------------------------------------------------|
D|-------------------------------------------------------------|
A|-------------------------------------------------------------|
E|--3--3---3/10-10-10-10-10--10\5---5---5/10-10-10-10-10--10\--|

G|--------------------------------------------------------------|
D|--------------------------------------------------------------|
A|--------------------------------------------------------------|
E|--8---8---8/10-10-10-10-10--10\3---3---3/10-10-10-10-10--10\5-|

Na tinutuan mo ang puso ko na umibig ng tunay…
G|---------------------------------------------------------------|
D|----------------------------------------2-5--------------------|
A|----2-5-5/7\0--0--0--0-0-0-2---3--3-3-5--------5/7--5-5-7--3-5-|
E|-3-------------------------------------------3-----------------|

ADLIB
Lalalala lala lalalala…
G|-----------------------------------------------------------------|
D|-----------------------------------------------------------------|
A|-----------------------------------------------------------------|
E|-3-3-3-3-3-3-3-3-5-5-5-5-5-5-5-5-8-8-8-8-8-8-8-8-3-3-3-3-3-3-3-3-|

Lalalala lala lalalala…
G|-----------------------------------------------------------------|
D|-----------------------------------------------------------------|
A|-----------------------------------------------------------------|
E|-3-3-3-3-3-3-3-3-5-5-5-5-5-5-5-5-8-8-8-8-8-8-8-8-3-3-3-3-3-3-3-3-|

OUTRO
G|---------------------------------------------------------------|
D|----------------------------------------2-5--------------------|
A|----2-5-5/7\0--0--0--0-0-0-2---3--3-3-5--------5/7--5-5-7--3-5-|
E|-3-------------------------------------------3-----------------|

G|---------------------------------------------------------------|
D|----------------------------------------2-5--------------------|
A|----2-5-5/7\0--0--0--0-0-0-2---3--3-3-5--------5/7--5-5-7--3-5-|
E|-3-------------------------------------------3-----------------|

LEAD PART
G|------------------------------------------------------|
D|------------------------------------------------------|
A|--3-------3-------3--------3-------3--------3---------|
E|-----3-3-----3-3-----3--------3-3-----3-3------3------|

G|------------------------------------------------------|
D|------------------------------------------------------|
A|--3-------3-------3--------3-------3--------3---------|
E|-----3-3-----3-3-----3--------3-3-----3-3------3------|

G|------------------------------------------------------|
D|------------------------------------------------------|
A|--3-------3-------3--------3-------3--------3---------|
E|-----3-3-----3-3-----3--------3-3-----3-3------3------|


G|---------------------------------------|
D|---------------------------------------|
A|--3-------3-------3--------------------|
E|-----3-3-----3-3-----3-------3-3-3-3---|

ENDING PART
G|--------------------------------------------------------------------|
D|--------------------------------------------------------------------|
A|--------------------------------------------------------------------|
E|3-3-3-3-3-3-3-3-5-5-5-5-5-5-5-5-8-8-8-8-8-8-8-8-3-3-3-3-3-3-3-3-3-3-|

G|--------------------------------------------------------------------|
D|--------------------------------------------------------------------|
A|--------------------------------------------------------------------|
E|3-3-3-3-3-3-3-3-5-5-5-5-5-5-5-5-8-8-8-8-8-8-8-8-3-3-3-3-3-3-3-3-3-3-|

G|--------------------------------------------------------------------|
D|--------------------------------------------------------------------|
A|--------------------------------------------------------------------|
E|3-3-3-3-3-3-3-3-5-5-5-5-5-5-5-5-8-8-8-8-8-8-8-8-3-3-3-3-3-3-3-3-3-3-|

G|--------------------------------------------------------------------|
D|--------------------------------------------------------------------|
A|--------------------------------------------------------------------|
E|3-3-3-3-3-3-3-3-5-5-5-5-5-5-5-5-8-8-8-8-8-8-8-8-3-3-3-3-3-3-3-3-3-3-|

G|--------------------------------------------------------------------|
D|--------------------------------------------------------------------|
A|--------------------------------------------------------------------|
E|--------------------------------------------------------------------|

G|-------------------------------------------------------------------|
D|-------------------------------------------------------------------|
A|----------------0~------------3~----------------------------7~-----|
E|---3~---------------------------------------3~---------------------|

END---




















            
            
Suggest correction
Creating personal tab
Creating personal tab
You can edit any tab online and save it as your Personal.

You can edit, replace or remove any tab part or add personal notes – all changes will be seen only by you.

Personal tabs can be accessed anytime from any device, even offline.
Learn more »
Give kudos to tab author, rate the tab!
1 2 3 4 5
comments
print report bad tab
guest
You may want to rate the tab now too:
select rating
Wanna post a correction for this tab? Suggest correction