Oops, an error
Loading. Please wait.

Huling El Bimbo Tab

version 1
version 1

Whole song

Interactive

43,318 views 45 this week
no commentswrite comment
1 2 3 4 5
x 10
add to favorites
launch autoscroll
font size
0
reset
how to read this tab
guitar tuner
×
Best way to learn
"Huling El Bimbo"
Autoscroll
slow
fast
+/-
esc
set tempo
stop
[Solo]
(Part 1)
e|-0-0-0-0-----------------------------------|
B|-0-1-2-3--3b-------------------------------|
G|------------2--2-4-5-7-7b---(repeat 3x)----|
D|-------------------------5-----------------|
A|-------------------------------------------|
E|-------------------------------------------|

(Part 2)
e|-------------------------------------------------------|
B|-------------------------------------------------------|
G|-------------------------------------------------------|
D|-7b-5-5--7b-5-5-7-5--8b----8b-----5---7b-5-5--7b-5-5---|
A|-----------------------7-7---7-7---7-------------------|
E|-------------------------------------------------------|

e|-------------------------------------------|
B|-------------------------------------------|
G|--------------------------------(repeat 2x)|
D|-7-5--5--------------------5-5-7-----------|
A|-------7p5--------------5-7-7--------------|
E|----------7s5-3-0-3-5-s7-------------------|

(Part 3)
e|-------------------------------------------|
B|-------------------------------------------|
G|-12----------------------------------------| (x2)
D|-------a vibrato in to it)-----------------|
A|-------------------------------------------|
E|-------------------------------------------|

e|-------------------------------15-17b-17b-17-15--15--17b-17b-17-15--15-|
B|-15p12------------------15b-s17----------------17-----------------17---|
G|------12---------------------------------------------------------------| (x5)
D|-----------------------------------------------------------------------|
A|-----------------------------------------------------------------------|
E|-----------------------------------------------------------------------|

e|-20b--19-20-19h20p19-17-15--15---|
B|--------------------------17-----|
G|---------------------------------|
D|---------------------------------|
A|---------------------------------|
E|---------------------------------|

e|-------------------------------------------|
B|-----------------------------------------0-|
G|-14b-14p12--14b-14p12--12----------------0-|
D|-------------------------14p12-----------0-|
A|------------------------------14s12-10-----|
E|--------------------------------------12---|

[Outro]
e|---------3-----3-----3-----------------------------|
B|-0-1-2-3--3-2---2-1---1-0--0-1-2-3-----------------|
G|-------0-------------------------0-----------------| (x2)
D|-------0-------------------------0-----------------|
A|---------------------------------------------------|
E|---------------------------------------------------|


************************************

| b  Bend
| p  Pull-off
| h  Hammer-on

************************************
Suggest correction
comments
print report bad tab
guest
You may want to rate the tab now too:
select rating
Wanna post a correction for this tab? Suggest correction