Oops, an error
Loading. Please wait.

Julie Tearjerky Tab

version 2
version 2

Whole song

Interactive

5,476 views 12 this week
no commentswrite comment
1 2 3 4 5
2 more votes to show rating
add to favorites
launch autoscroll
font size
0
reset
how to read this tab
guitar tuner
×
Best way to learn
"Julie Tearjerky"
Autoscroll
slow
fast
+/-
esc
set tempo
stop
Author
Song: Julie Tearjerky
Artist: Eraserheads
Album: Aloha Milkyway
Submitted by: bogey

Intro: (got this from other tabs)

E|----------4-----------------|
B|----2-3-5---5---------------|
G|---------------------2------|
D|---------------0-0-2--------|
A|--0---------------------0---|
E|----------------------------|

Verse:
A-AM7-A-AM7-Bm-A-G#-F#-E
A-AM7-A-AM7

Refrain: (guitar 1)
C-C-C7-F-Dm

(guitar 2)
E|-----------------------------------------|
B|------------6-6-5-5—-3-------------------|
G|-----------------------------------------|
D|-----------------------------------------|
A|-----------------------------------------|
E|-----------------------------------------|
  ...some more...

Chorus:
(guitar1)
A-AM7-A-AM7

(guitar2)
E|-------------4--------------------------4-------------|
B|------2-3-5-----5—-3-3-5---------2-3-5-----5—-3-3-5---|
G|------------------------------------------------------|
D|------------------------------------------------------|
A|------------------------------------------------------|
E|------------------------------------------------------|

Verse 2:
A-AM7-A-AM7-Bm-A-G#-F#-E
A-AM7-A-AM7

Refrain: (guitar 1)
C-C-C7-F-Dm 2x

(guitar 2)
E|------------------------------------------------------|
B|------------6-6-5-5—-3-----------------6-6-5-5--3-----|
G|------------------------------------------------------|
D|------------------------------------------------------|
A|------------------------------------------------------| 2x
E|------------------------------------------------------|
  ...some more...           I need some more...

Repeat chorus

Adlib:

E|-----------4-------------------------4----------------|
B|--2—-3—-5-----5—-3—3---5----2—-3—-5-----5—-3—3---5----|
G|------------------------------------------------------|
D|------------------------------------------------------|
A|------------------------------------------------------|
E|------------------------------------------------------|
    Pa pa pa pa pa pa pa pa   pa pa pa pa pa pa pa pa 

E|-------------------------|
B|--7—-7—-5—-5—-3—-2—0-----|
G|-------------------------|
D|-------------------------|
A|-------------------------|
E|-------------------------|
    Pa pa ra ra pa pa pa

E|------------------4------------------------4------|
B|--2—-2—-2—-3—-5------------2—-2—-2—-3—-5----------|
G|--------------------------------------------------|
D|--------------------------------------------------|
A|--------------------------------------------------|
E|--------------------------------------------------|
    Pa pa pa ra ra paaa...   pa pa pa ra ra paaa...   

Repeat refrain

Repeat chorus

Outro:
A-AM7 4x

Paki-rate na lang...=)
Suggest correction
Give kudos to tab author, rate the tab!
1 2 3 4 5
comments
print report bad tab
guest
You may want to rate the tab now too:
select rating
Wanna post a correction for this tab? Suggest correction