Oops, an error
Loading. Please wait.

Kaliwete tab

version 3
version 3

Whole song

Interactive

2,893 views 3 this week
no commentswrite comment
1 2 3 4 5
3 more votes to show rating
add to favorites
×
Save as Personal and add changes to this tab that will be seen only by you. Learn more ›
×
You can save this tab as Personal to edit and correct it or add notes. All changes will be seen only by you. Learn more »
launch autoscroll
font size
0
reset
how to read this tab
guitar tuner
edit
Autoscroll
slow
fast
+/-
esc
set tempo
stop
Author
Difficulty
                                Eraserheads - kaliwete

                                     SMP*Chords3d


Tuning:Standard


intro:
e|------------------------|---------------------------------------------------|
B|------------------------|---------------------------------------------------|
G|--------------------4x--|---------------------------------------------------|
D|-------5-2-5-2----------|---------------------------------------------------|
A|-----5---------5--------|---------------------------------------------------|
D|---3--------------------|---------------------------------------------------|


Part I


   nuong               nagsama          tayo..............

e|---------------------------------------------------------------------------|
B|---------------------------------------------------------------------------|
G|--------------------------5-2-5-2------------------------------------------|
D|-------5-2-5-2----------5---------5--------5-2-5-2----------5-2-5-2--------|
A|-----5---------5------3------------------5---------5------5---------5------|
D|---3-----------------------------------3----------------3------------------|


Part II


   ngunit        biglang        naturete
    ikaw pla    ay kaliwe           te
e|----2------------------------------3--------------------------------------------------|
B|----3---------------1-----------------------------------------------------------------|
G|----2--------------0------------------------------------------------------------------|
D|------------------2-------------------------------------------------------------------|
A|-----------------3-----------------2--------------------------------------------------|
D|-----------------------------------3--------------------------------------------------|


Part III

     sunod sunod  na  kamalasan    ang dumarating...........
   hindi ko          namalayan kung ano ang gagawin........
e|---------------------------------------------------|
B|---------------------------------------------------|
G|--------------------5-x-5-5------------------------|
D|----5--x--5----5----5-x-5-5-----5-x-5-5---5-x-5-5--|
A|----5--x--5----5----3-x-3-3-----5-x-5-5---5-x-5-5--|
D|----3--x--3----3----------------3-x-3-3---3-x-3-3--|


      sabi  naman  ni rico j  puno.........
     magayos  lng    daw  ng  upo.......
e|----2------------------------3-------------------------------------------------|
B|----3---------------1----------------------------------------------------------|
G|----2---------------0----------------------------------------------------------|
D|--------------------2----------------------------------------------------------|
A|--------------------3--------2-------------------------------------------------|
E|-----------------------------3-------------------------------------------------|


e|---------------------------------------------------------------------------|
B|---------------------------------------------------------------------------|
G|---------------------------------------------------------------------------|
D|---------------------------------------------------------------------------|
A|----5-5-----7-7-----9-9----------------------------------------------------|
E|----3-3-----5-5-----7-7----------------------------------------------------|

CHORUS:


  C                Bm
niyaya nya kami sa kubeta

 Am               G
mata ay lumuha sa nakita
e|---------------------------------------------------------------------------|
B|---------------------------------------------------------------------------|
G|---------------------------------------------------------------------------|
D|---------------------------------------------------------------------------|
A|----5-5-----7-7-----9-9----------------------------------------------------|
E|----3-3-----5-5-----7-7----------------------------------------------------|


   C                       Bm
oh bakit pba may kulay ang tao

    Am                D         C
mag ingat knalng kung ano ano o sino sino

            
            
Suggest correction
Creating personal tab
Creating personal tab
You can edit any tab online and save it as your Personal.

You can edit, replace or remove any tab part or add personal notes – all changes will be seen only by you.

Personal tabs can be accessed anytime from any device, even offline.
Learn more »
Give kudos to tab author, rate the tab!
1 2 3 4 5
comments
print report bad tab
guest
You may want to rate the tab now too:
select rating
Wanna post a correction for this tab? Suggest correction