Oops, an error
Loading. Please wait.

Ligaya tab

version 4
version 4

Whole song

Interactive

5,661 views 3 this week
no commentswrite comment
1 2 3 4 5
2 more votes to show rating
add to favorites
×
Save as Personal and add changes to this tab that will be seen only by you. Learn more ›
×
You can save this tab as Personal to edit and correct it or add notes. All changes will be seen only by you. Learn more »
launch autoscroll
font size
0
reset
how to read this tab
guitar tuner
edit
Autoscroll
slow
fast
+/-
esc
set tempo
stop
Author
Artist : Eraserheads
Song Title : Ligaya
Album : Ultraelectromagneticpop
Tabbed by : Michael Licarte (hub_125@yahoo.com)

Intro : (Let Ring)
        
       Asus2    Dsus2    Asus2    Dsus2      D       E
e|-------0--------0--------0--------3------2-------4---------|
B|-------0--------3--------0--------2--------3---3---5-------|
G|-------2--------2--------2--------3----------2-------4-----|
D|-------2--------0--------2--------0------------------------|
A|-------0--------0--------0--------0------------------------|
E|-----------------------------------------------------------|


Verse 1 : (Let Ring)

       Asus2    Dsus2    Asus2    Dsus2
e|-------0--------0--------0--------0--------|
B|-------0--------3--------0--------3--------|
G|-------2--------2--------2--------2--------|
D|-------2--------0--------2--------0--------|
A|-------------------------------------------|
E|-------------------------------------------|


Guitar 1 : (Listen for strum pattern)
        
         Bm       E       C#7
e|-------2--------4--------4-------------|
B|-------3--------5--------6-------------|
G|-------4--------4--------4-------------|
D|-------4-------------------------------|
A|---------------------------------------|
E|---------------------------------------|

Guitar 2 :

e|-------10----------12----------13------|
B|---9h10-------10h12-------12h14--------|
G|---------------------------------------|
D|---------------------------------------|
A|---------------------------------------|
E|---------------------------------------|

Guitar 1 :
        
        F#m       E      Dsus2      D       E
e|-------2--------0--------0------2-------4--------|
B|-------2--------0--------3--------3---3---5------|
G|-------2--------1--------2----------2-------4----|
D|-------4--------2--------------------------------|
A|-------4--------2--------------------------------|
E|-------2--------0--------------------------------|

e|--------9--------7-------10-----2-------4--------|
B|-----10--------9-------7----------3---3---5------|
G|------------------------------------2-------4----|
D|-------------------------------------------------|
A|-------------------------------------------------|
E|-------------------------------------------------|


Verse 2 : (Let Ring)

       Asus2    Dsus2    Asus2    Dsus2
e|-------0--------0--------0--------0--------|
B|-------0--------3--------0--------3--------|
G|-------2--------2--------2--------2--------|
D|-------2--------0--------2--------0--------|
A|-------------------------------------------|
E|-------------------------------------------|


Guitar 1 : (Listen for strum pattern)
        
         Bm       E       C#7
e|-------2--------4--------4-------------|
B|-------3--------5--------6-------------|
G|-------4--------4--------4-------------|
D|-------4-------------------------------|
A|---------------------------------------|
E|---------------------------------------|

Guitar 2 :

e|-------10----------12----------13------|
B|---9h10-------10h12-------12h14--------|
G|---------------------------------------|
D|---------------------------------------|
A|---------------------------------------|
E|---------------------------------------|

Guitar 1 :
        
        F#m       E      Dsus2      D       E
e|-------2--------0--------0------2-------4--------|
B|-------2--------0--------3--------3---3---5------|
G|-------2--------1--------2----------2-------4----|
D|-------4--------2--------------------------------|
A|-------4--------2--------------------------------|
E|-------2--------0--------------------------------|

e|--------9--------7-------10-----2-------4--------|
B|-----10--------9-------7----------3---3---5------|
G|------------------------------------2-------4----|
D|-------------------------------------------------|
A|-------------------------------------------------|
E|-------------------------------------------------|


Refrain :

       D             E
e|-----3-------------4-----------------------------|
B|-----2----break----5-----------------------------|
G|-----3-------------4-----------------------------|
D|-----0-------------------------------------------|
A|-------------------------------------------------|
E|-------------------------------------------------|

Chorus: (Listen for strum pattern)

       C                F    
e|-----0----------------1------------------|
B|-----1----------------1------------------|
G|-----0----------------2----(Repeat 3x)---|
D|-----2----------------3------------------|
A|-----3----------------3------------------|
E|-----0-----------------------------------|


       Em       F
e|-----0--------1--------------------------|
B|-----0--------1--------------------------|
G|-----0--------2----(Repeat 2x)-----------|
D|-----2--------3--------------------------|
A|-----2--------3--------------------------|
E|-----0-----------------------------------|

      D7       G#        G
e|-----2--------4--------3-----------------|
B|-----1--------4--------3-----------------|
G|-----2--------5--------4---(break)-------|
D|-----0--------6--------5-----------------|
A|-----0--------6--------5-----------------|
E|--------------4--------3-----------------|

       C        D        E    
e|-----0--------2--------4-----------------|
B|-----1--------3--------5-----------------|
G|-----0--------2--------4-----------------|
D|-----2-----------------------------------|
A|-----3-----------------------------------|
E|-----0-----------------------------------|


Adlib :

Guitar 1 :
       Asus2     Dsus2    
e|-------0---------0-------------------------|
B|-------0---------3-------------------------|
G|-------2---------2----(Repeat 2x)----------|
D|-------2---------0-------------------------|
A|-------------------------------------------|
E|-------------------------------------------|

Guitar 2 :

e|-------5---------5-------------------------|
B|-------5---------7-------------------------|
G|-------6---------7---(Repeat 2x)-----------|        
D|-------7---------7-------------------------|
A|-------------------------------------------|
E|-------------------------------------------|

Guitar 1 and 2 :

         Bm       E       C#7
e|-------2--------4--------4-------------|
B|-------3--------5--------6-------------|
G|-------4--------4--------4-------------|
D|-------4-------------------------------|
A|---------------------------------------|
E|---------------------------------------|

        F#m       E      Dsus2      D       E
e|-------2--------0--------0------2-------4--------|
B|-------2--------0--------3--------3---3---5------|
G|-------2--------1--------2----------2-------4----|
D|-------4--------2--------------------------------|
A|-------4--------2--------------------------------|
E|-------2--------0--------------------------------|


Verse 1
Verse 2
Refrain
Chorus
Verse 3
Refrain
Chorus (do chord pattern execpt the last 2 chords)
Chorus



Lyrics

Verse 1 :
 
Ilang awit pa ba ang aawitin, o giliw ko?
Ilang ulit pa bang uulitin, o giliw ko?
Tatlong oras na akong nagpapa-cute sa'yo
Di mo man lang napapansin ang bagon T-shirt ko

Verse 2 :

Ilang isaw pa ba ang kakainin, o giliw ko?
Ilang tansan pa ba ang iipunin, o giliw ko?
Gagawin ko ang lahat pati ang thesis mo
Huwag mo lang ipagkait ang hinahanap ko

Refrain :

Sagutin mo lang ako aking sinta'y
Walang humpay na ligaya

Chorus:

At asahang iibigin ka
Sa tanghali, sa gabi at umaga
Huwag ka sanang magtanong at magduda
Dahil ang puso ko'y walang pangamba
Lahat tayo'y mabubuhay ng tahimik at buong...
Ligaya

(Adlib) 

3rd Stanza:

Ilang ahit pa ba ang aahitin, o giliw ko?
Ilang hirit pa ba ang hihiritin, o giliw ko?
Di naman ako manyakis tulad ng iba
Pinapangako ko sa'yo na igagalang ka.

(Repeat Refrain then Chorus)
(Repeat Chorus 2x)

-end of song-

"Wala talaga magawa eto na lang ginawa ko.. hayuf na ulan yan"

Support our Music Industry!



            
            
Suggest correction
Creating personal tab
Creating personal tab
You can edit any tab online and save it as your Personal.

You can edit, replace or remove any tab part or add personal notes – all changes will be seen only by you.

Personal tabs can be accessed anytime from any device, even offline.
Learn more »
Give kudos to tab author, rate the tab!
1 2 3 4 5
comments
print report bad tab
guest
You may want to rate the tab now too:
select rating
Wanna post a correction for this tab? Suggest correction