Oops, an error
Loading. Please wait.

Magasin Tab

version 1
version 1

Whole song

Interactive

29,066 views 39 this week
no commentswrite comment
1 2 3 4 5
please rate
add to favorites
launch autoscroll
font size
0
reset
how to read this tab
guitar tuner
Autoscroll
slow
fast
+/-
esc
set tempo
stop
Help us to improve Ultimate-Guitar.com Take our survey!
×
Contributor
-----------------------------------------------------------------------------
MAGASIN - Eraserheads
-----------------------------------------------------------------------------

Tabbed by: Carl Gabriel C. Culvera
Email: wizard_effect@yahoo.com

Tuning: Standard

Intro:

E|----------------------------------------------|
B|-5-5-5--5-5h6--3-3-3--3-3h5--5-5-5--5-5h6—----|
G|-5-5-5--5-5----4-4-4--4-4----5-5-5--5-5----5~-|
D|-------------------------------------------7~-|
A|----------------------------------------------|
E|----------------------------------------------|

Verse: “Naaalala mo pa ba noong tayo pang dalawa?”

E|-0-0-0--0-0-0--0-0-0--1-1-1-| Repeat this tab twice then…
B|-1-1-1--0-0-0--1-1-1--1-1-1-|
G|-0-0-0--1-1-1--2-2-2--2-2-2-|
D|-2-2-2--2-2-2--2-2-2--3-3-3-|
A|-3-3-3--2-2-2--0-0-0--3-3-3-|
E|-0-0-0--0-0-0--0-0-0--1-1-1-|

Chorus:

E|----------------------------------------------------| Repeat
B|-5-5-5--5-5h6--3-3-3--3-3h5--5-5-5--5-5h6-----------| this tab twice then…
G|-5-5-5--5-5----4-4-4--4-4----5-5-5--5-5----5-5-5--5-| Repeat Verse then…
D|-------------------------------------------7-7-7--7-| Repeat
A|----------------------------------------------------| Chorus again then…

Solo:

E|-12-12-12--12-12-----12-12-12--12-------------12-12-12--12-11----------|
B|-13-13-13--13-13h15--12-12-12--12-15-13-12-13-13-13-13--13----13-12-13-|
G|-----------------------------------------------------------------------|
D|-----------------------------------------------------------------------|
A|-----------------------------------------------------------------------|
E|-----------------------------------------------------------------------|

E|-12/15-15-15-15-15/16--12----------12----14----------14----15----------15-|
B|-13/16-16-16-16-----------13----13----13----15----15----15----16----16----|
G|-----------------------------12----------------14----------------15-------|
D|--------------------------------------------------------------------------|
A|--------------------------------------------------------------------------|
E|--------------------------------------------------------------------------|

E|----16--------| Repeat Verse then…
B|-16----17-----| Repeat Chorus then…
G|----------16~-|
D|--------------|
A|--------------|
E|--------------|

Chorus (Higher Chord): “Iba na ang iyong ngiti…”

E|----------------------------------------------------| Repeat
B|-6-6-6--6-6h7--4-4-4--4-4h6--6-6-6--6-6h7-----------| this tab twice then…
G|-6-6-6--6-6----5-5-5--5-5----6-6-6--6-6----6-6-6--6-| Repeat
D|-------------------------------------------8-8-8--8-| Chorus once then…
A|----------------------------------------------------| Repeat Intro
E|----------------------------------------------------|
Suggest correction new What's this?
You can suggest a correction to this tab. Community and Mods will review your correction and vote to approve or reject it.
comments
We did not receive enough feedback on this tab! Please rate:
print report bad tab
1 2 3 4 5
guest
You may want to rate the tab now too:
select rating
Please do not post tabs as comments. Select "correction" instead!